Lemon Squeezy Records

Artist: Phoebe Bridgers, Title: You Missed My Heart

CGCFGC Resources

Create Chord Sheets Guitar Tuner Songs Videos Tuning Map

C

G

C

F

G

C

Phoebe Bridgers - You Missed My Heart

This is a cover song by Mark Kozelek/Sun Kil Moon played by Phoebe Bridgers.
The tuning for the Sun Kil Moon version is as follows: DADGAd
If you are playing this to Phoebe Bridgers' recording, tune a whole step lower: CGCFGc. 
You may use the same tab for both versions, just depends on what version/key you'll play in. Tuning within this tab will be for Phoebe's version.


[Intro/Verse]

c|---------------0---------------0-|
G|-------0---------------0---------|
F|---0-------0-------0-------0-----|
C|-----4-------4-------4-------4---|
G|---------------------------------|
C|-0-------0-------0-------0-------|

c|---------------0---------------0-|
G|-------0---------------0---------|
F|---0-------0-------0-------0-----|
C|-----4-------4-------4-------4---|
G|-4-------4-------4-------4-------|
C|---------------------------------|

c|---------------0---------------0-|
G|-------0---------------0---------|
F|---0-------0-------0-------0-----|
C|-----4-------4-------4-------4---|
G|-2-------2-------2-------2-------|
C|---------------------------------|

c|---------------0---------------0-|
G|-------0---------------0---------|
F|---0-------0-------0-------0-----|
C|-----0-------0-------0-------0---|
G|---------------------------------|
C|-5-------5-------5-------5-------|


Ends of verses 2, 5, and 7 into Choruses

c|---------------0---------------0-|
G|-------0---------------0---------|
F|---0-------0-------0-------0-----|
C|-----0-------0-------0-------0---|
G|---------------------------------|
C|-5-------5-------5-------5-------|

c|---------------0---------------0-|
G|-------0---------------0---------|
F|---0-------0-------0-------0-----|
C|-----0-------0-------0-------0---|
G|---------------------------------|
C|-7-------7-------7-------7-------|


[Chorus]

c|---------------0---------------0-|
G|-------0---------------0---------|
F|---0-------0-------0-------0-----|
C|-----4-------4-------4-------4---|
G|---------------------------------|
C|-0-------0-------0-------0-------|

c|---------------0---------------0-|
G|-------0---------------0---------|
F|---0-------0-------0-------0-----|
C|-----4-------4-------4-------4---|
G|-2-------2-------2-------2-------|
C|---------------------------------|

c|---------------0---------------0-|
G|-------0---------------0---------|
F|---0-------0-------0-------0-----|
C|-----0-------0-------0-------0---|
G|---------------------------------|
C|-5-------5-------5-------5-------|

c|---------------0---------------0-|
G|-------0---------------0---------|
F|---0-------0-------0-------0-----|
C|-----0-------0-------0-------0---|
G|---------------------------------|
C|-7-------7-------7-------7-------|