Artist: John Fahey, Title: Wine and roses - DADFAD

Card image

D

Card image

A

Card image

D

Card image

F

Card image

A

Card image

D

John Fahey - Wine and roses

Wine and Roses 
by John Fahey

from "Dance of Death", 1964/1967 
Tabbed by Mike Zuber

Dm tuning (DADFAD)


D||--------------------|--0----------------|------------------|
A||--3--------4--------|--0----------------|------------------|
F||--2--------3--------|--4----------------|------------------|
D||--------------------|--0----------------|------------------|
A||--3--------4--------|--5----------------|------------------|
D||--------------------|--0----------------|------------------|

--------------------|--0----0---------0----|--------------------|
--3--------4--------|--5----5---------5----|--3--------4--------|
--2--------3--------|--4----4---------4----|--2--------3--------|
--------------------|--0----0---------0----|--0--------0--------|
--3--------4--------|-----------------5----|--3--------4--------|
--------------------|------------0----0----|--------------------|

--0----0------------|--------0-------0-------0-------0-|
--5----5------------|----0-------0-------0-------0-----|
--4----4------------|----------------------------------|
--0----0------------|----------------------------------|
--------------------|------0---1---0---0---0-------0---|
--------------------|--0-----------------------2-------|

--------0-------0-------0-------0-|--------0-------0-------0-------0-|
----0-------0-------0-------0-----|----0-------0-------0-------0-----|
----------------------------------|----------------------------------|
----------------------------------|----------------------------------|
------0---1---0---0---0-------0---|------0---1---0---0---0-------0---|
--0-----------------------2-------|--0-----------------------2-------|

--0--------3---------|--3-------------3--------|--3-------------3--------|
--0---------------5--|--5-------5-----------5--|--4-------4-----------4--|
--0------------------|-------------------------|-------------------------|
--0------------------|-------0-----------0-----|-------0-----------0-----|
--0------------------|-------------------------|-------------------------|
--0------------------|--0----------0-----------|--0----------0-----------|

--3----------5--3-------|--3------------0-------|--3---------3---------|
--3-------3-------------|--2--------------------|--1---------1---------|
------------------------|-----------------------|----------------------|
-------0-----------0----|-------0----------0----|-------0---------0----|
------------------------|-----------------------|----------------------|
--0----------0----------|--0---------0----------|--0---------0---------|

--0------------0-------|-----------------------|--0------------0-----0--|
--0---------3----------|--3---------0--3-------|--0---------------------|
-----------------------|-----------------------|------------------------|
-------0----------0----|-------0----------0----|-------0----------0-----|
-----------------------|-----------------------|------------------------|
--0---------0----------|--0---------0----------|--0---------0-----------|

------------------3-----|--3-------------3--------|--3-------------3--------|
---------------5-----5--|--5-------5-----------5--|--4-------4-----------4--|
------------------------|-------------------------|-------------------------|
-------0----------0-----|-------0-----------0-----|-------0-----------0-----|
------------------------|-------------------------|-------------------------|
--0---------0-----------|--0----------0-----------|--0----------0-----------|

--3----------5--3-------|--3------------0-------|--3---------0--3-------|
--3-------3-------------|--2--------------------|--1---------1--1-------|
------------------------|-----------------------|-----------------------|
-------0-----------0----|-------0----------0----|-------0----------0----|
------------------------|-----------------------|-----------------------|
--0----------0----------|--0---------0----------|--0---------0----------|

--0------------0-------|-----------------------|--0------------7--------|
--0---------3----------|--3---------0--3-------|--0------------------0--|
-----------------------|-----------------------|------------------------|
-------0----------0----|-------0----------0----|-------0----------0-----|
-----------------------|-----------------------|------------------------|
--0---------0----------|--0---------0----------|--0---------0-----------|

--7------------10-------|--12--------------7-----|--7---------10---------|
------------------------|---------------------0--|-----------------------|
------------------------|------------------------|-----------------------|
-------0-----------0----|--------0---------0-----|-------0----------0----|
------------------------|------------------------|-----------------------|
--0---------0-----------|--0----------0----------|--0---------0----------|

--12------------7--------|--7---------10---------|--12---------12----10----|
----------------------0--|-----------------------|-------------------------|
-------------------------|-----------------------|-------------------------|
--------0----------0-----|-------0----------0----|--------0----------0-----|
-------------------------|-----------------------|-------------------------|
--0----------0-----------|--0---------0----------|--0----------0-----------|

--7---------7---------|----------------------|--3-------------3--------|
----------------------|--7b------------------|--5-------5-----------5--|
----------------------|----------------------|-------------------------|
-------0---------0----|-------0---------0----|-------0-----------0-----|
----------------------|----------------------|-------------------------|
--0---------0---------|--0---------0---------|--0----------0-----------|

--3-------------3--------|--3----------5--3-------|--3------------0-------|
--4-------4-----------4--|--3-------3-------------|--2--------------------|
-------------------------|------------------------|-----------------------|
-------0-----------0-----|-------0-----------0----|-------0----------0----|
-------------------------|------------------------|-----------------------|
--0----------0-----------|--0----------0----------|--0---------0----------|

--3---------0--3-------|--0------------0-------|--0------------0--------|
--1---------1--1-------|--0---------3----------|--0------------------0--|
-----------------------|-----------------------|------------------------|
-------0----------0----|-------0----------0----|-------0----------0-----|
-----------------------|-----------------------|------------------------|
--0---------0----------|--0---------0----------|--0---------0-----------|

--0--------------------|--------------------------|--------------------------|
-----------------------|-----3-----------3--------|-----3-----------3--------|
----------0------------|-----------2-----------2--|-----------2-----------2--|
-------0----------0----|--------0-----------0-----|--------0-----------0-----|
-----------------------|--3-----------3-----------|--3-----------3-----------|
--0----------0---------|--------------------------|--------------------------|

--0---------------------|--0---------------------|--------------------------|
-------0-------0--------|-------0-------0--------|-----3-----------3--------|
-------0-------------0--|-------0-------------0--|-----------2-----------2--|
-------0----------0-----|-------0----------0-----|--------0-----------0-----|
------------------------|------------------------|--3-----------3-----------|
--0---------0-----------|--0---------0-----------|--------------------------|

-------------------------|--0------------0--------|--0--------------------|
-----3-----0-----3-------|--0------------------0--|-----------------------|
-----------2-----2-------|-------0----------------|----------0------------|
--------0-----------0----|-------0----------0-----|-------0----------0----|
--3-----------3----------|------------------------|-----------------------|
-------------------------|--0---------0-----------|--0----------0---------|

--------------------------|--------------------------|
-----3-----------3--------|-----3-----------3--------|
-----------2-----------2--|-----------2-----------2--|
--------0-----------0-----|--------0-----------0-----|
--3-----------3-----------|--3-----------3-----------|
--------------------------|--------------------------|

--------------------------|--------------------------|
-----4-----------4--------|-----4-----------4--------|
-----------3-----------3--|-----------3-----------3--|
--------0-----------0-----|--------0-----------0-----|
--4-----------4-----------|--4-----------4-----------|
--------------------------|--------------------------|

-----------0--------------|-----------0--------------|
-----------------0--------|-----------------0--------|
--------0--------------0--|--------0--------------0--|
-----0--------------0-----|-----0--------------0-----|
--5-----------5-----------|--5-----------5-----------|
--------------------------|--------------------------|

-----------0--------------|--0---------0---------|-----------0--------------|
-----------------0--------|--0----0----0----0----|-----------------0--------|
--------0--------------0--|-------4---------4----|--------0--------------0--|
-----0--------------0-----|-------0---------0----|-----0--------------0-----|
--5-----------5-----------|--5---------5---------|--5-----------5-----------|
--------------------------|----------------------|--------------------------|

-----------0--------------|--------------------------|
-----------------0--------|-----4-----------4--------|
--------0--------------0--|-----------3-----------3--|
-----0--------------0-----|--------0-----------0-----|
--5-----------5-----------|--4-----------4-----------|
--------------------------|--------------------------|

--------------------------|--------------------------|
-----4-----------4--------|-----3-----------3--------|
-----------3-----------3--|-----------2-----------2--|
--------0-----------0-----|--------0-----------0-----|
--4-----------4-----------|--3-----------3-----------|
--------------------------|--------------------------|

--------------------------|--0------------0-------|--0--------------------|
-----3-----------3--------|-------0---------------|-------0---------------|
-----------2-----------2--|-------0---------------|-------0--0------------|
--------0-----------0-----|-------0----------0----|-------0----------0----|
--3-----------3-----------|-----------------------|-----------------------|
--------------------------|--0---------0----------|--0----------0---------|

--3-------------3--------|--3-------------3--------|--3----------5--3-------|
--5-------5-----------5--|--4-------4-----------4--|--3-------3-------------|
-------------------------|-------------------------|------------------------|
-------0-----------0-----|-------0-----------0-----|-------0-----------0----|
-------------------------|-------------------------|------------------------|
--0----------0-----------|--0----------0-----------|--0----------0----------|

--3------------0-------|--3---------0--3-------|--0------------0-------|
--2--------------------|--1---------1--1-------|--0---------3----------|
-----------------------|-----------------------|-----------------------|
-------0----------0----|-------0----------0----|-------0----------0----|
-----------------------|-----------------------|-----------------------|
--0---------0----------|--0---------0----------|--0---------0----------|

-----------------------|--0------------0-----0--|------------------3-----|
--3---------0--3-------|--0---------------------|---------------5-----5--|
-----------------------|------------------------|------------------------|
-------0----------0----|-------0----------0-----|-------0----------0-----|
-----------------------|------------------------|------------------------|
--0---------0----------|--0---------0-----------|--0---------0-----------|

--3-------------3--------|--3-------------3--------|--3----------5--3-------|
--5-------5-----------5--|--4-------4-----------4--|--3-------3-------------|
-------------------------|-------------------------|------------------------|
-------0-----------0-----|-------0-----------0-----|-------0-----------0----|
-------------------------|-------------------------|------------------------|
--0----------0-----------|--0----------0-----------|--0----------0----------|

--3------------0-------|--3---------0--3-------|--0------------0-------|
--2--------------------|--1---------1--1-------|--0---------3----------|
-----------------------|-----------------------|-----------------------|
-------0----------0----|-------0----------0----|-------0----------0----|
-----------------------|-----------------------|-----------------------|
--0---------0----------|--0---------0----------|--0---------0----------|

-----------------------|--0------------7--------|--7------------10-------|
--3---------0--3-------|--0------------------0--|------------------------|
-----------------------|------------------------|------------------------|
-------0----------0----|-------0----------0-----|-------0-----------0----|
-----------------------|------------------------|------------------------|
--0---------0----------|--0---------0-----------|--0---------0-----------|

--12--------------7-----|--7---------10---------|--12------------7--------|
---------------------0--|-----------------------|----------------------0--|
------------------------|-----------------------|-------------------------|
--------0---------0-----|-------0----------0----|--------0----------0-----|
------------------------|-----------------------|-------------------------|
--0----------0----------|--0---------0----------|--0----------0-----------|

--7---------10---------|--12---------12----10----|--7-------------------|
-----------------------|-------------------------|------------7b--------|
-----------------------|-------------------------|----------------------|
-------0----------0----|--------0----------0-----|-------0---------0----|
-----------------------|-------------------------|----------------------|
--0---------0----------|--0----------0-----------|--0---------0---------|

--0-------------------|--3-------------3--------|--3-------------3--------|
------------7b--------|--5-------5-----------5--|--4-------4-----------4--|
----------------------|-------------------------|-------------------------|
-------0---------0----|-------0-----------0-----|-------0-----------0-----|
----------------------|-------------------------|-------------------------|
--0---------0---------|--0----------0-----------|--0----------0-----------|

--3----------5--3-------|--3------------0-------|--3---------0--3-------|
--3-------3-------------|--2--------------------|--1---------1--1-------|
------------------------|-----------------------|-----------------------|
-------0-----------0----|-------0----------0----|-------0----------0----|
------------------------|-----------------------|-----------------------|
--0----------0----------|--0---------0----------|--0---------0----------|

--0------------0-------|-----------------------|--0------------0-----0--|
--0---------3----------|--3---------0--3-------|--0---------------------|
-----------------------|-----------------------|------------------------|
-------0----------0----|-------0----------0----|-------0----------0-----|
-----------------------|-----------------------|------------------------|
--0---------0----------|--0---------0----------|--0---------0-----------|

|-----------------------|----------------0---------||----------------------|
|-----------------------|----------0-----------0---||----------------------|
|*----------------------|-------------------------*||----------------------|
|*-------0----0----0----|-------0-----------0-----*||-------0---------0----|
|-----------------------|--------------------------||----------------------|
|---0-------------------|--0----------0------------||--0---------0---------|

|-----------------------|----------------------|------------------------|
|---3---------3---------|--3---------4---------|--5------------5--------|
|*--2---------2---------|--2---------3---------|--4------------------4--|
|*-------0---------0----|-------0---------0----|-------0----------0-----|
|---3---------3---------|--3---------4---------|--5---------5-----------|
|-----------------------|----------------------|------------------------|

---------------------------||----------------------|----------------------|
-----5-----------5---------||--3---------3---------|--3---------4---------|
-----------4-----------4--*||--2---------2---------|--2---------3---------|
--------0-----------0-----*||-------0---------0----|-------0---------0----|
--5-----------5------------||--3---------3---------|--3---------4---------|
---------------------------||----------------------|----------------------|

-----------------------|----------------------|----------------------|
--5-------5--5----5----|--3---------3---------|--0---------3---------|
--4-------4--4----4----|--2---------2---------|--0---------2---------|
-------0----------0----|-------0---------0----|-------0---------0----|
--5----------5---------|--3---------3---------|--0---------3---------|
-----------------------|----------------------|----------------------|

--0-------------0--------|-----0-----------0--------|
--0-------0-----------0--|-----------0-----------0--|
-------------------------|--------------------------|
-------0-----------------|--------0-----------0-----|
-------------------0-----|--------------------------|
--0----------0-----------|--0-----------0-----------|

--------0-------0-------0-------0-|--------0-------0-------0-------0-|
----0-------0-------0-------0-----|----0-------0-------0-------0-----|
----------------------------------|----------------------------------|
----------------------------------|----------------------------------|
------0---1---0---0---0-------0---|------0---1---0---0---0-------0---|
--0-----------------------2-------|--0-----------------------2-------|

-------0-------0--------|--0-------------0--------|-----------------------|
-------0-------------0--|--0-------0-----------0--|-------8-------8-------|
-------0----------------|--0----------------------|----------8------------|
-------0----------0-----|--0----0-----------0-----|------------------8----|
------------------------|-------------------------|-----------------------|
--0---------0-----------|--0----------0-----------|--8--------------------|

-----------------------|-----------------------|-----------------------|
-------8-------8-------|-------8-------8-------|-------8-------8-------|
----------8------------|----------8------------|----------8------------|
------------------8----|------------------8----|------------------8----|
-----------------------|-----------------------|-----------------------|
--8--------------------|--8--------------------|--8--------------------|

-----------------------|-----------------------|-----------------------|
-----------------------|-----------------------|-----------------------|
----------8------------|----------8------------|----------8------------|
-------8-------8-------|-------8-------8-------|-------8-------8-------|
------------------8----|------------------8----|------------------8----|
--8--------------------|--8--------------------|--8--------------------|

-----------------------|-------0---------------|-------0---------------|
-----------------------|---------------0-------|---------------0-------|
----------8------------|------------------0----|------------------0----|
-------8-------8-------|----------0------------|----------0------------|
------------------8----|--1--------------------|--1--------------------|
--8--------------------|-----------------------|-----------------------|

-------0---------------|-------0---------------|----------------------|
---------------0-------|---------------0-------|----------------------|
------------------0----|------------------0----|----------------------|
----------0------------|----------0------------|----------------------|
--1--------------------|--1--------------------|--1----0----1----0----|
-----------------------|-----------------------|----------------------|

------------0--------|------------0---------|--0---------0---------|
------------0--------|-------0---------0----|-------0---------0----|
--0----0----0--------|----------------------|----------------------|
--0----0----0--------|----------------------|----------------------|
--1----0----0--------|-------0----1----0----|--0----0---------0----|
------------0--------|--0-------------------|------------2---------|

--12----------------||
--12----------------||
--12----------------||
--12----------------||
--12----------------||
--12----------------||