Artist: My try, Title: Just a try to check the formatting - FCDGAE

Card image

F

Card image

C

Card image

D

Card image

G

Card image

A

Card image

E

My try - Just a try to check the formatting

INTRO STRUMENTALE
(prima battuta armonici al 12mo tasto)
(first bar 12th fret harmonics)

|---12----|------------5--8-7--5--|--7------5-h7p5------|-------|
|---12----|----------5------------|-----------------8---|-------|
|---12----|-------5---------------|---------------------|-------|
|---12----|-----7-----------------|---------------------|-------|
|---12----|--0--------------------|---------------------|-------|
|---12----|-----------------------|---------------------|--0----|



|----------8-10--8-7--8---|--7----5-h7p5-----|----------------5--3-----|
|-------8-----------------|---------------8--|-------------5-----------|
|-----7-------------------|------------------|----------3--------------|
|--7----------------------|------------------|-------3-----------------|
|-------------------------|------------------|--0----------------------|
|-------------------------|------------------|-------------------------|