Artist: Linkin Park, Title: Dont Stay - C#G#EBF#B

Card image

C#

Card image

G#

Card image

E

Card image

B

Card image

F#

Card image

B

Linkin Park - Dont Stay

[Intro/Verse]
C#|-----------------------------------------------------------------|
G#|-----------------------------------------------------------------|
E |-----------------------------------------------------------------|
B |-0-0-0-7-3-3-5-5-5-8-7-------------------------------------------|
F#|-0-0-0-7-3-3-5-5-5-8-7-------------------------------------------|
B |-0-0-0-7-3-3-5-5-5-8-7-------------------------------------------|

The End Part
C#|-----------------------------------------------------------------|
G#|-----------------------------------------------------------------|
E |-----------------------------------------------------------------|
B |-0-0-0-7-3-0-1-1-1-x-x-x-----------------------------------------|
F#|-0-0-0-7-3-0-1-1-1-x-x-x-----------------------------------------|
B |-0-0-0-7-3-0-1-1-1-x-x-x-----------------------------------------|

[Chorus]
C#|-----------------------------------------------------------------|
G#|-----------------------------------------------------------------|
E |-----------------------------------------------------------------|
B |-0-0-0-7-8-10-5-5-5-7-3-1-0--------------------------------------|
F#|-0-0-0-7-8-10-5-5-5-7-3-1-0--------------------------------------|
B |-0-0-0-7-8-10-5-5-5-7-3-1-0--------------------------------------|

[Bridge]
C#|-----------------------------------------------------------------|
G#|-----------------------------------------------------------------|
E |-----------5-5-5-5-5-5-/-8---------------------------------------|
B |-0-0-1-0-0-------------------------------------------------------|
F#|-0-0-1-0-0-3-3-3-3-3-3-/-6---------------------------------------|
B |-0-0-1-0-0-------------------------------------------------------|

The End Part Of The Bridge
C#|-----------------------------------------------------------------|
G#|-----------------------------------------------------------------|
E |-----------------------------------------------------------------|
B |-0-0-1-0-0-1-1-1-x-x-x-1-1-1-x-x-x-1-1-1-x-x-x-1-1-1-1-1-1-1-1---|
F#|-0-0-1-0-0-1-1-1-x-x-x-1-1-1-x-x-x-1-1-1-x-x-x-1-1-1-1-1-1-1-1---|
B |-0-0-1-0-0-1-1-1-x-x-x-1-1-1-x-x-x-1-1-1-x-x-x-1-1-1-1-1-1-1-1---|

That's it! Enjoy!



************************************

| x  Dead note
| /  Slide up

************************************