Lemon Squeezy Records

Artist: Remo Drive, Title: Yer Killin Me

DGDGBE Resources

Create Chord Sheets Guitar Tuner Songs Videos Tuning Map

D

G

D

G

B

E

Remo Drive - Yer Killin Me

Artist: Remo Drive
Song: Yer Killin' Me

Tab by Will Glasby

Tuning: DGDGBE

I will tab out the chords and different components of this song only once. Once you've
got them it should be pretty easy to piece them together yourself.




     W                    W                    W                 
E||-------------------|--------------------|--------------------|
B||-------------------|--------------------|--------------------|
G||--7----------------|--12----------------|--------------------|
D||--3----------------|---8----------------|--12----------------|
G||--3----------------|---8----------------|---8----------------|
D||-------------------|--------------------|--10----------------|

  W                                                                             
-------------------|
-------------------|
-------------------|
--7----------------|
--5----------------|
--3----------------|




  W                                       W                                     
-------------------|-------------------|-------------------|-------------------|
-------------------|-------------------|--6----------------|-------------------|
--8----------------|-------------------|-------------------|-------------------|
--5----------------|-------------------|--8----------------|-------------------|
--5----------------|-------------------|--7----------------|-------------------|
-------------------|-------------------|--5----------------|-------------------|

   W                                        W                 
--------------------|-------------------|--------------------|
--------------------|-------------------|--------------------|
--11----------------|-------------------|--12----------------|
---7----------------|-------------------|---8----------------|
---7----------------|-------------------|---8----------------|
--------------------|-------------------|--------------------|

   W                                                         
--------------------|
--------------------|
--11----------------|
---8----------------|
---8----------------|
--------------------|




   Q.     Q.     E   E                           
------------------------|
------------------------|
------------------------|
--12------7-------------|
--10------5---------12--|
---8------3---------13--|




   |-----3----|     |-----3----|        |-----3----|     |-----3----|     
   Q    Q     Q     Q    Q     Q        Q    Q     Q     Q    Q     Q     
------------------------------------|------------------------------------|
------------------------------------|------------------------------------|
-------------12----10----8----------|------------------------------------|
--------8---------------------12----|--10----8----10----12----8----10----|
--10--------------------------------|------------------------------------|
------------------------------------|------------------------------------|

   W                                                         
--------------------|
--------------------|
--------------------|
--10----------------|
--------------------|
--------------------|




   |-----3----|     |-----3----|        |-----3----|     |-----3----|     
   Q    Q     Q     Q    Q     Q        Q    Q     Q     Q    Q     Q     
------------------------------------|------------------------------------|
------------------------------------|------------------------------------|
-------------12----10----8----------|------------------------------------|
--------8---------------------12----|--10----8----10----12----8----10----|
--10--------------------------------|------------------------------------|
------------------------------------|------------------------------------|

   E.   S E   E   E.   S E   E      E.   S E   E   E.   S E   E               
--------------------------------|--------------------------------|
--11---11----11--11---11----11--|--11---11----11--11---11----11--|
---8----8-----8---8----8-----8--|---8----8-----8---8----8-----8--|
--10---10----10--10---10----10--|--10---10----10--10---10----10--|
--------------------------------|--------------------------------|
--------------------------------|--------------------------------|




   |-----3----|     |-----3----|        |-----3----|     |-----3----|     
   Q    Q     Q     Q    Q     Q        Q    Q     Q     Q    Q     Q     
------------------------------------|------------------------------------|
------------------------------------|------------------------------------|
-------------12----10----8----------|------------------------------------|
--------8---------------------12----|--10----8----10----12----8----10----|
--10--------------------------------|------------------------------------|
------------------------------------|------------------------------------|

   E.   S E   E   E.   S E   E      E.   S E   E   E.   S E   E               
--------------------------------|--------------------------------|
--11---11----11--11---11----11--|--------------------------------|
---8----8-----8---8----8-----8--|--12---12----12--10---10----10--|
--10---10----10--10---10----10--|--13---13----13--12---12----12--|
--------------------------------|--------------------------------|
--------------------------------|--------------------------------|




   |-----3----|     |-----3----|        |-----3----|     |-----3----|     
   Q    Q     Q     Q    Q     Q        Q    Q     Q     Q    Q     Q     
------------------------------------|------------------------------------|
------------------------------------|------------------------------------|
-------------12----10----8----------|------------------------------------|
--------8---------------------12----|--10----8----10----12----8----10----|
--10--------------------------------|------------------------------------|
------------------------------------|------------------------------------|

   |-----3-----|     |-----3-----|       |----3----|    |----3----|     
   Q     Q     Q     Q     Q     Q       Q    Q    Q    Q    Q    Q     
--------------------------------------|--------------------------------|
--------------------------------------|--------------------------------|
--------------------------------------|--------------------------------|
--10----10----10----10----10----10----|--8----8----8----7----7----7----|
--------------------------------------|--------------------------------|
--------------------------------------|--------------------------------|


  W                  
-------------------||
-------------------||
-------------------||
--8----------------||
-------------------||
-------------------||




Duration Legend
---------------
W - whole
H - half
Q - quarter
E - 8th
S - 16th
T - 32nd
X - 64th
. - note dotted
|-n-|  - n-tuplets


Tablature Legend
----------------
L - tied note
x - dead note
g - grace note
(n) - ghost note
> - accentuded note
NH - natural harmonic
AH - artificial harmonic
TH - tapped harmonic
SH - semi harmonic
PH - pitch harmonic
h - hammer on
p - pull off
b - bend
br - bendRelease
pb - preBend
pbr - preBendRelease
brb - bendReleaseBend
\n/ - tremolo bar dip
\n - tremolo bar dive
-/n - tremolo bar Release up
/n\ - tremolo bar inverted dip
/n - tremolo bar return
-\n - tremolo bar Release down
S - shift slide
s - legato slide
/ -  slide into from below or out of upwards
\ -  slide into from above or out of downwards
~ - vibrato
W - wide vibrato
tr - trill
TP - tremolo picking
T - tapping
S - slap
P - pop
< - fade in
^ - brush up
v - brush down