Artist: Hot Mulligan, Title: Wait For It - FACGCE

Card image

F

Card image

A

Card image

C

Card image

G

Card image

C

Card image

E

Hot Mulligan - Wait For It

[Intro/Verse 1]

E|-----------------------------------------------|-----------------------------------------------|
C|---------0----------0----------0----------0----|---------0----------0----------0----------0----|
G|-------0---0------0---0------0---0------0---0--|-------0---0------0---0------0---0------0---0--|
C|-----0----------0----------0----------0--------|-----0----------0----------0----------0--------|
A|-----------------------------------------------|-----------------------------------------------|
F|--4----------2----------7----------6-----------|--0----------0----------2----------2-----------|

E|-----------------------------------------------|-----------------------------------------------|
C|---------0----------0----------0----------0----|---------0----------0----------0----------0----|
G|-------0---0------0---0------0---0------0---0--|-------0---0------0---0------0---0------0---0--|
C|-----0----------0----------0----------0--------|-----0----------0----------0----------0--------|
A|-----------------------------------------------|-----------------------------------------------|
F|--4----------2----------7----------6-----------|--0----------0----------2----------2-----------|

E|-----------------------------------------------|-----------------------------------------------|
C|---------0----------0----------0----------0----|---------0----------0----------0----------0----|
G|-------0---0------0---0------0---0------0---0--|-------0---0------0---0------0---0------0---0--|
C|-----0----------0----------0----------0--------|-----0----------0----------0----------0--------|
A|-----------------------------------------------|-----------------------------------------------|
F|--4----------2----------7----------6-----------|--0----------0----------2----------2-----------|

E|-----------------------------------------------|-----------------------------------------------|
C|---------0----------0----------0----------0----|---------0----------0----------0----------0----|
G|-------0---0------0---0------0---0------0---0--|-------0---0------0---0------0---0------0---0--|
C|-----0----------0----------0----------0--------|-----0----------0----------0----------0--------|
A|-----------------------------------------------|-----------------------------------------------|
F|--4----------2----------7----------6-----------|--0----------0----------2----------2-----------|

E|-----------------------------------------------|-----------------------------------------------|
C|---------0----------0----------0----------0----|---------0----------0----------0----------0----|
G|-------0---0------0---0------0---0------0---0--|-------0---0------0---0------0---0------0---0--|
C|-----0----------0----------0----------0--------|-----0----------0----------0----------0--------|
A|-----------------------------------------------|-----------------------------------------------|
F|--0----------0----------2----------2-----------|--4----------6----------7----------9-----------|

E|-----------------------------------------------|-----------------------------------------------|
C|---------0----------0----------0----------0----|---------0----------0----------0----------0----|
G|-------0---0------0---0------0---0------0---0--|-------0---0------0---0------0---0------0---0--|
C|-----0----------0----------0----------0--------|-----0----------0----------0----------0--------|
A|-----------------------------------------------|-----------------------------------------------|
F|--0----------0----------2----------2-----------|--4----------6----------7----------9-----------|

E|-----------------------------------------------|-----------------------------------------------|
C|---------0----------0----------0----------0----|---------0----------0----------0----------0----|
G|-------0---0------0---0------0---0------0---0--|-------0---0------0---0------0---0------0---0--|
C|-----0----------0----------0----------0--------|-----0----------0----------0----------0--------|
A|-----------------------------------------------|-----------------------------------------------|
F|--0----------0----------2----------2-----------|--4----------6----------7----------9-----------|

E|-----------------------------------------------|-----------------------------------------------|
C|---------0----------0----------0----------0----|---------0----------0----------0----------0----|
G|-------0---0------0---0------0---0------0---0--|-------0---0------0---0------0---0------0---0--|
C|-----0----------0----------0----------0--------|-----0----------0----------0----------0--------|
A|-----------------------------------------------|-----------------------------------------------|
F|--0----------0----------2----------2-----------|--4----------6----------7----------9-----------|

E|-------------------------------------|
C|---------0----------0------------0~--|
G|-------0---0------0---0-------0--0~--|
C|-----0----------0----------0-----0~--|
A|---------------------------------x---|
F|--0----------0----------2--------2~--|


[Verse 2]

Guitar 1
E|-----------------------------------------------|-----------------------------------------------|
C|---------0----------0----------0----------0----|---------0----------0----------0----------0----|
G|-------0---0------0---0------0---0------0---0--|-------0---0------0---0------0---0------0---0--|
C|-----0----------0----------0----------0--------|-----0----------0----------0----------0--------|
A|-----------------------------------------------|-----------------------------------------------|
F|--4----------2----------7----------6-----------|--0----------0----------2----------2-----------|

E|-----------------------------------------------|-----------------------------------------------|
C|---------0----------0----------0----------0----|---------0----------0----------0----------0----|
G|-------0---0------0---0------0---0------0---0--|-------0---0------0---0------0---0------0---0--|
C|-----0----------0----------0----------0--------|-----0----------0----------0----------0--------|
A|-----------------------------------------------|-----------------------------------------------|
F|--4----------2----------7----------6-----------|--0----------0----------2----------2-----------|

E|-----------------------------------------------|-----------------------------------------------|
C|---------0----------0----------0----------0----|---------0----------0----------0----------0----|
G|-------0---0------0---0------0---0------0---0--|-------0---0------0---0------0---0------0---0--|
C|-----0----------0----------0----------0--------|-----0----------0----------0----------0--------|
A|-----------------------------------------------|-----------------------------------------------|
F|--4----------2----------7----------6-----------|--0----------0----------2----------2-----------|

E|-----------------------------------------------|---------------------------------------|
C|---------0----------0----------0----------0----|---------0----------0----------0---0~--|
G|-------0---0------0---0------0---0------0---0--|-------0---0------0---0------0---0-0~--|
C|-----0----------0----------0----------0--------|-----0----------0----------0-------0~--|
A|-----------------------------------------------|-----------------------------------x---|
F|--4----------2----------7----------6-----------|--0----------0----------2----------2~--|

Guitar 2
E|--------|--------|
C|--------|--------|
G|--REST--|--REST--|
C|--------|--------|
A|--------|--------|
F|--------|--------|

E|--------|--------|
C|--------|--------|
G|--REST--|--REST--|
C|--------|--------|
A|--------|--------|
F|--------|--------|

E|----------------------------------------|--------------------------------------|
C|-----0-----------0-----0--2--2/4--2--0--|-----0-----------0-----0--------2-----|
G|--0-----4--0--4-----0-------------------|--0-----4--0--4-----0-----4--0-----4--|
C|----------------------------------------|--------------------------------------|
A|----------------------------------------|--------------------------------------|
F|----------------------------------------|--------------------------------------|

E|----------------------------------------|---------------------------------|
C|-----0-----------0-----0--2--2/4--2--0--|-----0-----------0-----0---------|
G|--0-----4--0--4-----0-------------------|--0-----4--0--4-----0-----4--0~--|
C|----------------------------------------|---------------------------------|
A|----------------------------------------|---------------------------------|
F|----------------------------------------|---------------------------------|
 

[Interlude]

E|---------------------------------------------------|
C|--------0-----------0-----------0-----------0------|
G|------0---0-------0---0-------0---0-------0---0----|
C|----0-------0---0-------0---0-------0---0-------0--|
A|---------------------------------------------------|
F|--0-----------0-----------2-----------2------------|

E|------------------------------------------------|
C|--------0-----------0-----------0-----------0~--|
G|------0---0-------0---0-------0---0-------0-0~--|
C|----0-------0---0-------0---0-------0---0---0~--|
A|--------------------------------------------x---|
F|--0-----------0-----------2-----------2-----2~--|


[Outro]

Guitar 1
E|-----------------------------------------------|-----------------------------------------------|
C|---------0----------0--------------------------|---------0----------0----------0----------0----|
G|-------0---0------0---0------------------------|-------0---0------0---0------0---0------0---0--|
C|-----0----------0------------------------------|-----0----------0----------0----------0--------|
A|-----------------------------------------------|-----------------------------------------------|
F|--0----------0----------2----------------------|--4----------6----------7----------9-----------|

E|-----------------------------------------------|-----------------------------------------------|
C|---------0----------0----------0----------0----|---------0----------0----------0----------0----|
G|-------0---0------0---0------0---0------0---0--|-------0---0------0---0------0---0------0---0--|
C|-----0----------0----------0----------0--------|-----0----------0----------0----------0--------|
A|-----------------------------------------------|-----------------------------------------------|
F|--0----------0----------2----------2-----------|--4----------6----------7----------9-----------|

E|------|
C|--0~--|
G|--0~--|
C|--0~--|
A|--0~--|
F|--0~--|

Guitar 2
E|--------|--------------------------------------|------|--------|
C|--------|--------------------------------------|------|--------|
G|--REST--|--------------------------------------|------|--REST--|
C|--------|--------------------------------------|------|--------|
A|--------|--------------------------------------|--3~--|--------|
F|--------|--4--4--4--6--6--6--7--7--7--9--9--9--|--0~--|--------|



**************************************

|  x    mute note
|  /    slide up
|  ~    sustained note

**************************************