Artist: Sonic Youth, Title: Tunic Song for Karen - GGDDGG

Card image

G

Card image

G

Card image

D

Card image

D

Card image

G

Card image

G

Sonic Youth - Tunic Song for Karen

BEGINNING FEEDBACK
  Gtr 1 (volume swell)
D|--------------------------------|--------------------------------|
E|--------------------------------|--------------------------------|
G|0>>>>>>>>>>>>>>>>>>>>>>>>>>>>>>>|>>>>>>>>>>>>>>>>>>>>>>>>>>>>>>>>|
D|0>>>>>>>>>>>>>>>>>>>>>>>>>>>>>>>|>>>>>>>>>>>>>>>>>>>>>>>>>>>>>>>>|
G|0>>>>>>>>>>>>>>>>>>>>>>>>>>>>>>>|>>>>>>>>>>>>>>>>>>>>>>>>>>>>>>>>|
E|--------------------------------|--------------------------------|
 |
 |Gtr 2 (volume swell)
G|--------------------------------|--------------------------------|
G|--------------------------------|--------------------------------|
D|0>>>>>>>>>>>>>>>>>>>>>>>>>>>>>>>|>>>>>>>>>>>>>>>>>>>>>>>>>>>>>>>>|
D|0>>>>>>>>>>>>>>>>>>>>>>>>>>>>>>>|>>>>>>>>>>>>>>>>>>>>>>>>>>>>>>>>|
G|0>>>>>>>>>>>>>>>>>>>>>>>>>>>>>>>|>>>>>>>>>>>>>>>>>>>>>>>>>>>>>>>>|
G|0>>>>>>>>>>>>>>>>>>>>>>>>>>>>>>>|>>>>>>>>>>>>>>>>>>>>>>>>>>>>>>>>|





INTRO RIFF: repeat x2
  Gtr 1
D|0---0---0---0---0---0---0---0---|0---0---0---0---0---0---0---0---|
E|10--10--10--10--10--10--10--10--|10--10--10--10--10--10--10--10--|
G|7---7---7---7---7---7---7---7---|7---7---7---7---7---7---7---7---|
D|--------------------------------|--------------------------------|
G|--------------------------------|--------------------------------|
E|--------------------------------|--------------------------------|
 |
 |Gtr 2
G|--------------------------------|--------------------------------|
G|--------------------------------|--------------------------------|
D|12--12--12--12--12--12--12--12--|12--12--12--12--12--12--12--12--|
D|12--12--12--12--12--12--12--12--|12--12--12--12--12--12--12--12--|
G|--------------------------------|--------------------------------|
G|--------------------------------|--------------------------------|


  Gtr 1
D|0---0---0---0---0---0---0---0---|0---0---0---0---0---0---0---0---|
E|9---9---9---9---9---9---9---9---|9---9---9---9---9---9---9---9---|
G|6---6---6---6---6---6---6---6---|6---6---6---6---6---6---6---6---|
D|--------------------------------|--------------------------------|
G|--------------------------------|--------------------------------|
E|--------------------------------|--------------------------------|
 |
 |Gtr 2
G|--------------------------------|--------------------------------|
G|--------------------------------|--------------------------------|
D|12--12--12--12--12--12--12--12--|12--12--12--12--12--12--12--12--|
D|11--11--11--11--11--11--11--11--|11--11--11--11--11--11--11--11--|
G|--------------------------------|--------------------------------|
G|--------------------------------|--------------------------------|





BREAK RIFF: repeat x4
  Gtr 1
D|--------------------------------|--------------------------------|
E|--------------------------------|--------------------------------|
G|0---0---0---0---0---0---0---0---|0---0---0---0---0---0---0---0---|
D|0---0---0---0---0---0---0---0---|0---0---0---0---0---0---0---0---|
G|0---0---0---0---0---0---0---0---|0---0---0---0---0---0---0---0---|
E|--------------------------------|--------------------------------|
 |
 |Gtr 2
G|----0---------------------------|----0---------------------------|
G|----0---------------------------|----0---------------------------|
D|----0---------------------------|----0---------------------------|
D|0---0---0---0---0---0---0---0---|0---0---0---0---0---0---0---0---|
G|0---0---0---0---0---0---0---0---|0---0---0---0---0---0---0---0---|
G|0---0---0---0---0---0---0---0---|0---0---0---0---0---0---0---0---|





VERSE LEAD-IN
  Gtr 1
D|--------------------------------|--------------------------------|
E|6---6---6---6---6---6-------6---|----6---6-------6---6---6---6---|
G|0---0---0---0---0---0-------0---|----0---0-------0---0---0---0---|
D|0---0---0---0---0---0-------0---|----0---0-------0---0---0---0---|
G|0---0---0---0---0---0-------0---|----0---0-------0---0---0---0---|
E|--------------------------------|--------------------------------|
 |
 |Gtr 2
G|-----0--------------------------|--------------------------------|
G|----0---------------------------|--------------------------------|
D|---8----------------------------|--------------------------------|
D|--8-----------------------------|--------------------------------|
G|-0------------------------------|--------------------------------|
G|0-------------------------------|--------------------------------|


  Gtr 1
D|--------------------------------|--------------------------------|
E|8---8---8---8---8---8-------8---|----8---8-------8---8---8---8---|
G|0---0---0---0---0---0-------0---|----0---0-------0---0---0---0---|
D|8---8---8---8---8---8-------8---|----8---8-------8---8---8---8---|
G|0---0---0---0---0---0-------0---|----0---0-------0---0---0---0---|
E|--------------------------------|--------------------------------|
 |
 |Gtr 2
G|-----10-------------------------|--------------------------------|
G|----10--------------------------|--------------------------------|
D|---10---------------------------|--------------------------------|
D|--10----------------------------|--------------------------------|
G|-0------------------------------|--------------------------------|
G|0-------------------------------|--------------------------------|


  Gtr 1
D|--------------------------------|--------------------------------|
E|5---5---5---5---5---5-------5---|----5---5-------5---5---5---5---|
G|0---0---0---0---0---0-------0---|----0---0-------0---0---0---0---|
D|7---7---7---7---7---7-------7---|----7---7-------7---7---7---7---|
G|0---0---0---0---0---0-------0---|----0---0-------0---0---0---0---|
E|--------------------------------|--------------------------------|
 |
 |Gtr 2
G|-----5--------------------------|--------------------------------|
G|----5---------------------------|--------------------------------|
D|---7----------------------------|--------------------------------|
D|--7-----------------------------|--------------------------------|
G|-0------------------------------|--------------------------------|
G|0-------------------------------|--------------------------------|


  Gtr 1
D|--------------------------------|--------------------------------|
E|6---6---6---6---6---6-------6---|----6---6-------6---6---6---6---|
G|0---0---0---0---0---0-------0---|----0---0-------0---0---0---0---|
D|8---8---8---8---8---8-------8---|----8---8-------8---8---8---8---|
G|0---0---0---0---0---0-------0---|----0---0-------0---0---0---0---|
E|--------------------------------|--------------------------------|
 |
 |Gtr 2
G|-----0----------0-0-0-0-0---0---|0-------0-----------------------|
G|----0-----------0-0-0-0-0---0---|0-------0-----------------------|
D|---12---------------------------|--------------------------------|
D|--12----------------------------|--------------------------------|
G|-0------------------------------|--------------------------------|
G|0-------------------------------|--------------------------------|


  Gtr 1
D|--------------------------------|--------------------------------|
E|6---6---6---6---6---6-------6---|----6---6-------6---6---6---6---|
G|0---0---0---0---0---0-------0---|----0---0-------0---0---0---0---|
D|0---0---0---0---0---0-------0---|----0---0-------0---0---0---0---|
G|0---0---0---0---0---0-------0---|----0---0-------0---0---0---0---|
E|--------------------------------|--------------------------------|
 |
 |Gtr 2
G|-----12-------------------------|----\----------/----------------|
G|----12--------------------------|-----\--------/-----------------|
D|---12---------------------------|------\------/------------------|
D|--12----------------------------|-------\----/-------------------|
G|-0------------------------------|--------\--/--------------------|
G|0-------------------------------|---------\/---------------------|


  Gtr 1
D|--------------------------------|--------------------------------|
E|8---8---8---8---8---8-------8---|----8---8-------8---8---8---8---|
G|0---0---0---0---0---0-------0---|----0---0-------0---0---0---0---|
D|8---8---8---8---8---8-------8---|----8---8-------8---8---8---8---|
G|0---0---0---0---0---0-------0---|----0---0-------0---0---0---0---|
E|--------------------------------|--------------------------------|
 |
 |Gtr 2
G|-----10-------------------------|----\----------/----------------|
G|----10--------------------------|-----\--------/-----------------|
D|---10---------------------------|------\------/------------------|
D|--10----------------------------|-------\----/-------------------|
G|-0------------------------------|--------\--/--------------------|
G|0-------------------------------|---------\/---------------------|


  Gtr 1
D|--------------------------------|--------------------------------|
E|5---5---5---5---5---5-------5---|----5---5-------5---5---5---5---|
G|0---0---0---0---0---0-------0---|----0---0-------0---0---0---0---|
D|7---7---7---7---7---7-------7---|----7---7-------7---7---7---7---|
G|0---0---0---0---0---0-------0---|----0---0-------0---0---0---0---|
E|--------------------------------|--------------------------------|
 |
 |Gtr 2
G|-----5--------------------------|----\----------/----------------|
G|----5---------------------------|-----\--------/-----------------|
D|---7----------------------------|------\------/------------------|
D|--7-----------------------------|-------\----/-------------------|
G|-0------------------------------|--------\--/--------------------|
G|0-------------------------------|---------\/---------------------|


  Gtr 1
D|--------------------------------|--------------------------------|
E|6---6---6---6---6---6-------6---|----6---6-------6---6---6---6---|
G|0---0---0---0---0---0-------0---|----0---0-------0---0---0---0---|
D|8---8---8---8---8---8-------8---|----8---8-------8---8---8---8---|
G|0---0---0---0---0---0-------0---|----0---0-------0---0---0---0---|
E|--------------------------------|--------------------------------|
 |
 |Gtr 2
G|-----0----------0-0-0-0-0---0---|0-------0-----------------------|
G|----0-----------0-0-0-0-0---0---|0-------0-----------------------|
D|---12---------------------------|--------------------------------|
D|--12----------------------------|--------------------------------|
G|-0------------------------------|--------------------------------|
G|0-------------------------------|--------------------------------|





1ST VERSE: repeat x2
  Gtr 1
D|--------------------------------|--------------------------------|
E|6---6---6---6---6---6-------6---|----6---6-------6---6---6---6---|
G|0---0---0---0---0---0-------0---|----0---0-------0---0---0---0---|
D|0---0---0---0---0---0-------0---|----0---0-------0---0---0---0---|
G|0---0---0---0---0---0-------0---|----0---0-------0---0---0---0---|
E|--------------------------------|--------------------------------|
 |
 |Gtr 2
G|12------12--12--12------14------|----14--14--14--12--12----------|
G|12------12--12--12------14------|----14--14--14--12--12----------|
D|12------12--12--12------12------|----12--12--12--12--12----------|
D|12------12--12--12------12------|----12--12--12--12--12----------|
G|0-------0-----------------------|--------------------------------|
G|0-------0-----------------------|--------------------------------|


  Gtr 1
D|--------------------------------|--------------------------------|
E|8---8---8---8---8---8-------8---|----8---8-------8---8---8---8---|
G|0---0---0---0---0---0-------0---|----0---0-------0---0---0---0---|
D|8---8---8---8---8---8-------8---|----8---8-------8---8---8---8---|
G|0---0---0---0---0---0-------0---|----0---0-------0---0---0---0---|
E|--------------------------------|--------------------------------|
 |
 |Gtr 2
G|10----------10--10--12-----10---|----\----------/----------------|
G|10----------10--10--12-----10---|-----\--------/-----------------|
D|10----------10--10--10-----10---|------\------/------------------|
D|10----------10--10--10-----10---|-------\----/-------------------|
G|0--------------------------0----|--------\--/--------------------|
G|0--------------------------0----|---------\/---------------------|


  Gtr 1
D|--------------------------------|--------------------------------|
E|5---5---5---5---5---5-------5---|----5---5-------5---5---5---5---|
G|0---0---0---0---0---0-------0---|----0---0-------0---0---0---0---|
D|7---7---7---7---7---7-------7---|----7---7-------7---7---7---7---|
G|0---0---0---0---0---0-------0---|----0---0-------0---0---0---0---|
E|--------------------------------|--------------------------------|
 |
 |Gtr 2
G|-----5--------------------------|----\----------/----------------|
G|----5---------------------------|-----\--------/-----------------|
D|---7----------------------------|------\------/------------------|
D|--7-----------------------------|-------\----/-------------------|
G|-0------------------------------|--------\--/--------------------|
G|0-------------------------------|---------\/---------------------|


  Gtr 1
D|--------------------------------|--------------------------------|
E|6---6---6---6---6---6-------6---|----6---6-------6---6---6---6---|
G|0---0---0---0---0---0-------0---|----0---0-------0---0---0---0---|
D|8---8---8---8---8---8-------8---|----8---8-------8---8---8---8---|
G|0---0---0---0---0---0-------0---|----0---0-------0---0---0---0---|
E|--------------------------------|--------------------------------|
 |
 |Gtr 2
G|-----0----------0-0-0-0-0---0---|0-------0-----------------------|
G|----0-----------0-0-0-0-0---0---|0-------0-----------------------|
D|---12---------------------------|--------------------------------|
D|--12----------------------------|--------------------------------|
G|-0------------------------------|--------------------------------|
G|0-------------------------------|--------------------------------|





1ST CHORUS: repeat x4
  Gtr 1
D|----------------5---3-----------|--------------------------------|
E|3-------3-------3---3-------5---|----5---3---3/--8---8---6-------|
G|0-------0-------------------0---|----0---0---0---0---0---0-------|
D|0-------0-------------------0---|----0---0---0---0---0---0-------|
G|0-------0-----------------------|--------------------------------|
E|--------------------------------|--------------------------------|
 |
 |Gtr 2
G|----------------10\---------2---|----2---0---0---5---5---3-------|
G|----------------10\---------0---|----0---0---0---0---0---0-------|
D|0-------0-------12\-------------|--------------------------------|
D|0-------0-------12\-------------|--------------------------------|
G|0-------0-----------------------|--------------------------------|
G|0-------0-----------------------|--------------------------------|





BRIDGE RIFF
  Gtr 1
D|--------------------------------|--------------------------------|
E|--------5-----------------------|--------5-----------------------|
G|5---5-------5---7---5-----------|5---5-------5---7---5-----------|
D|5-----------------------5-------|5-----------------------5-------|
G|5---------------------------5---|5---------------------------5---|
E|--------------------------------|--------------------------------|
 |
 |Gtr 2
G|5-----------------------5---5---|5-----------------------x---x---|
G|5-----------------------5---5---|5-----------------------x---x---|
D|5-----------------------5---5---|5-----------------------x---x---|
D|5-----------------------5---5---|5-----------------------x---x---|
G|5-----------------------5---5---|5-----------------------x---x---|
G|5-----------------------5---5---|5-----------------------x---x---|


  Gtr 1
D|----------------5---5---5---3---|----3---3---3---3---3---3---3---|
E|3-------3---3---3---3---3---3---|----3---3---3---3---3---3---3---|
G|0-------0---0---0---0---0---0---|----0---0---0---0---0---0---0---|
D|0-------0---0---0---0---0---0---|----0---0---0---0---0---0---0---|
G|0-------0---0---0---0---0---0---|----0---0---0---0---0---0---0---|
E|--------------------------------|--------------------------------|
 |
 |Gtr 2
G|----------------3---3-----------|----------------3---3---x---x---|
G|----------------3---3-----------|----------------3---3---x---x---|
D|5-------5-------5---5-------5---|--------5---5---5---5---x---x---|
D|5-------5-------5---5-------5---|--------5---5---5---5---x---x---|
G|0-------0-------0---0-------0---|--------0---0-------------------|
G|0-------0-------0---0-------0---|--------0---0-------------------|


  Gtr 1
D|--------------------------------|--------------------------------|
E|--------5-----------------------|--------5-----------------------|
G|5---5-------5---7---5-----------|5---5-------5---7---5-----------|
D|5-----------------------5-------|5-----------------------5-------|
G|5---------------------------5---|5---------------------------5---|
E|--------------------------------|--------------------------------|
 |
 |Gtr 2
G|5-----------------------5---5---|5---------------5---5---5---5---|
G|5-----------------------5---5---|5---------------5---5---5---5---|
D|5-----------------------5---5---|5---------------5---5---5---5---|
D|5-----------------------5---5---|5---------------5---5---5---5---|
G|5-----------------------5---5---|5---------------5---5---5---5---|
G|5-----------------------5---5---|5---------------5---5---5---5---|


  Gtr 1
D|----------------5---5---5---3---|----3---3---3---3---3---3---3---|
E|3-------3---3---3---3---3---3---|----3---3---3---3---3---3---3---|
G|0-------0---0---0---0---0---0---|----0---0---0---0---0---0---0---|
D|0-------0---0---0---0---0---0---|----0---0---0---0---0---0---0---|
G|0-------0---0---0---0---0---0---|----0---0---0---0---0---0---0---|
E|--------------------------------|--------------------------------|
 |
 |Gtr 2
G|----------------3---3-----------|----------------3---3---3---3---|
G|----------------3---3-----------|----------------3---3---3---3---|
D|5-------5-------5---5-------5---|----5---5---5---5---5---5---5---|
D|5-------5-------5---5-------5---|----5---5---5---5---5---5---5---|
G|0-------0-------0---0-------0---|----0---0---0---0---0---0---0---|
G|0-------0-------0---0-------0---|----0---0---0---0---0---0---0---|


  Gtr 1
D|7-------7---7-------7---7---7---|----7---7---7---7---7---7---7---|
E|5-------5---5-------5---5---5---|----5---5---5---5---5---5---5---|
G|5-------5---5-------5---5---5---|----5---5---5---5---5---5---5---|
D|5-------5---5-------5---5---5---|----5---5---5---5---5---5---5---|
G|5-------5---5-------5---5---5---|----5---5---5---5---5---5---5---|
E|--------------------------------|--------------------------------|
 |
 |Gtr 2
G|--------------------------------|--------------------------------|
G|--------------------------------|--------------------------------|
D|7-------7---7-----------7---7---|7-------7---7-------------------|
D|7-------7---7-----------7---7---|7-------7---7-------------------|
G|5-------5---5-----------5---5---|5-------5---5-------------------|
G|5-------5---5-----------5---5---|5-------5---5-------------------|


  Gtr 1
D|--------------------------------|--------------------------------|
E|10--10--10--10--10--10--10--10--|10--10--10--10--10--10--10--10--|
G|7---7---7---7---7---7---7---7---|7---7---7---7---7---7---7---7---|
D|0---0---0---0---0---0---0---0---|0---0---0---0---0---0---0---0---|
G|0---0---0---0---0---0---0---0---|0---0---0---0---0---0---0---0---|
E|--------------------------------|--------------------------------|
 |
 |Gtr 2
G|--------------------------------|--------------------------------|
G|--------------------------------|--------------------------------|
D|12--12--12--12--12--12--12--12--|12--12--12--12--12--12--12--12--|
D|12--12--12--12--12--12--12--12--|12--12--12--12--12--12--12--12--|
G|0---0---0---0---0---0---0---0---|0---0---0---0---0---0---0---0---|
G|0---0---0---0---0---0---0---0---|0---0---0---0---0---0---0---0---|


  Gtr 1
D|7-------7---7-------7---7---7---|----7---7---7---7---7---7---7---|
E|5-------5---5-------5---5---5---|----5---5---5---5---5---5---5---|
G|5-------5---5-------5---5---5---|----5---5---5---5---5---5---5---|
D|5-------5---5-------5---5---5---|----5---5---5---5---5---5---5---|
G|5-------5---5-------5---5---5---|----5---5---5---5---5---5---5---|
E|--------------------------------|--------------------------------|
 |
 |Gtr 2
G|--------------------------------|--------------------------------|
G|--------------------------------|--------------------------------|
D|7-------7---7-------7---7---7---|7-------7---7-------7---7---7---|
D|7-------7---7-------7---7---7---|7-------7---7-------7---7---7---|
G|5-------5---5-------5---5---5---|5-------5---5-------5---5---5---|
G|5-------5---5-------5---5---5---|5-------5---5-------5---5---5---|


  Gtr 1
D|--------------------------------|--------------------------------|
E|10--10--10--10--10--10--10--10--|10--10--10--10--10--10--10--10--|
G|7---7---7---7---7---7---7---7---|7---7---7---7---7---7---7---7---|
D|0---0---0---0---0---0---0---0---|0---0---0---0---0---0---0---0---|
G|0---0---0---0---0---0---0---0---|0---0---0---0---0---0---0---0---|
E|--------------------------------|--------------------------------|
 |
 |Gtr 2
G|--------------------------------|--------------------------------|
G|--------------------------------|--------------------------------|
D|12--12--12--12--12--12--12--12--|12--12--12--12--12--12--12--12--|
D|12--12--12--12--12--12--12--12--|12--12--12--12--12--12--12--12--|
G|0---0---0---0---0---0---0---0---|0---0---0---0---0---0---0---0---|
G|0---0---0---0---0---0---0---0---|0---0---0---0---0---0---0---0---|





TURNAROUND RIFF
  Gtr 1
D|0---0---0---0---0---0---0---0---|0---0---0---0---0---0---0---0---|
E|10--10--10--10--10--10--10--10--|10--10--10--10--10--10--10--10--|
G|7---7---7---7---7---7---7---7---|7---7---7---7---7---7---7---7---|
D|0---0---0---0---0---0---0---0---|0---0---0---0---0---0---0---0---|
G|0---0---0---0---0---0---0---0---|0---0---0---0---0---0---0---0---|
E|--------------------------------|--------------------------------|
 |
 |Gtr 2
G|0---0---0---0---0---0---0---0---|0---0---0---0---0---0---0---0---|
G|0---0---0---0---0---0---0---0---|0---0---0---0---0---0---0---0---|
D|12--12--12--12--12--12--12--12--|12--12--12--12--12--12--12--12--|
D|12--12--12--12--12--12--12--12--|12--12--12--12--12--12--12--12--|
G|0---0---0---0---0---0---0---0---|0---0---0---0---0---0---0---0---|
G|0---0---0---0---0---0---0---0---|0---0---0---0---0---0---0---0---|


  Gtr 1
D|0---0---0---0---0---0---0---0---|0---0---0---0---0---0---0---0---|
E|9---9---9---9---9---9---9---9---|9---9---9---9---9---9---9---9---|
G|6---6---6---6---6---6---6---6---|6---6---6---6---6---6---6---6---|
D|0---0---0---0---0---0---0---0---|0---0---0---0---0---0---0---0---|
G|0---0---0---0---0---0---0---0---|0---0---0---0---0---0---0---0---|
E|--------------------------------|--------------------------------|
 |
 |Gtr 2
G|0---0---0---0---0---0---0---0---|0---0---0---0---0---0---0---0---|
G|0---0---0---0---0---0---0---0---|0---0---0---0---0---0---0---0---|
D|12--12--12--12--12--12--12--12--|12--12--12--12--12--12--12--12--|
D|11--11--11--11--11--11--11--11--|11--11--11--11--11--11--11--11--|
G|0---0---0---0---0---0---0---0---|0---0---0---0---0---0---0---0---|
G|0---0---0---0---0---0---0---0---|0---0---0---0---0---0---0---0---|


  Gtr 1
D|0---0---0---0---0---0---0---0---|0---0---0---0---0---0---0---0---|
E|10--10--10--10--10--10--10--10--|10--10--10--10--10--10--10--10--|
G|7---7---7---7---7---7---7---7---|7---7---7---7---7---7---7---7---|
D|0---0---0---0---0---0---0---0---|0---0---0---0---0---0---0---0---|
G|0---0---0---0---0---0---0---0---|0---0---0---0---0---0---0---0---|
E|--------------------------------|--------------------------------|
 |
 |Gtr 2
G|0---0---0---0---0---0---0---0---|0---0---0---0---0---0---0---0---|
G|0---0---0---0---0---0---0---0---|0---0---0---0---0---0---0---0---|
D|12--12--12--12--12--12--12--12--|12--12--12--12--12--12--12--12--|
D|12--12--12--12--12--12--12--12--|12--12--12--12--12--12--12--12--|
G|0---0---0---0---0---0---0---0---|0---0---0---0---0---0---0---0---|
G|0---0---0---0---0---0---0---0---|0---0---0---0---0---0---0---0---|


  Gtr 1
D|0---0---0---0---0---0---0---0---|0---0---0---0---0---0---0---0---|
E|9---9---9---9---9---9---9---9---|9---9---9---9---9---9---9---9---|
G|6---6---6---6---6---6---6---6---|6---6---6---6---6---6---6---6---|
D|0---0---0---0---0---0---0---0---|0---0---0---0---0---0---0---0---|
G|0---0---0---0---0---0---0---0---|0---0---0---0---0---0---0---0---|
E|--------------------------------|--------------------------------|
 |
 |Gtr 2
G|0---0---0---0---0---0---0---0---|0---0---0---0---0---0---0---0---|
G|0---0---0---0---0---0---0---0---|0---0---0---0---0---0---0---0---|
D|12--12--12--12--12--12--12--12--|12--12--12--12--12--12--12--12--|
D|11--11--11--11--11--11--11--11--|11--11--11--11--11--11--11--11--|
G|0---0---0---0---0---0---0---0---|0---0---0---0---0---0---0---0---|
G|0---0---0---0---0---0---0---0---|0---0---0---0---0---0---0---0---|





BREAK RIFF: repeat x4

2ND VERSE: repeat x2

CHORUS RIFF: repeat x4

BRIDGE RIFF

TURNAROUND RIFF

NOISE INTERLUDE: repeat x19
  Gtr 1
D|0---0---0---0---0---0---0---0---|0---0---0---0---0---0---0---0---|
E|10--10--10--10--10--10--10--10--|10--10--10--10--10--10--10--10--|
G|7---7---7---7---7---7---7---7---|7---7---7---7---7---7---7---7---|
D|0---0---0---0---0---0---0---0---|0---0---0---0---0---0---0---0---|
G|0---0---0---0---0---0---0---0---|0---0---0---0---0---0---0---0---|
E|--------------------------------|--------------------------------|
 |
 |Gtr 2
G|12--12--12--12--12--12--12--12--|12--12--12--12--12--12--12--12--|
G|12--12--12--12--12--12--12--12--|12--12--12--12--12--12--12--12--|
D|12--12--12--12--12--12--12--12--|12--12--12--12--12--12--12--12--|
D|0---0---0---0---0---0---0---0---|0---0---0---0---0---0---0---0---|
G|0---0---0---0---0---0---0---0---|0---0---0---0---0---0---0---0---|
G|0---0---0---0---0---0---0---0---|0---0---0---0---0---0---0---0---|





3RD VERSE: repeat x2

CHORUS RIFF: repeat x4

BRIDGE RIFF

TURNAROUND RIFF

ENDING
  Gtr 1
D|--------------------------------|--------------------------------|
E|--------------------------------|--------------------------------|
G|0-------------------------------|(0)-----------------------------|
D|0-------------------------------|(0)-----------------------------|
G|0-------------------------------|(0)-----------------------------|
E|--------------------------------|--------------------------------|
 |
 |Gtr 2
G|0-------------------------------|(0)-----------------------------|
G|0-------------------------------|(0)-----------------------------|
D|0-------------------------------|(0)-----------------------------|
D|0-------------------------------|(0)-----------------------------|
G|0-------------------------------|(0)-----------------------------|
G|0-------------------------------|(0)-----------------------------|