Artist: Beartooth, Title: The Lines - CGCFAD

Card image

C

Card image

G

Card image

C

Card image

F

Card image

A

Card image

D

Beartooth - The Lines

Tempo: 108 Bpm


[Intro] x2 

The intro is basically the verse with muted notes at the beginning and the end.
(add before the start & replace the part from the last bend on)

D|-------------|
A|-------------|
F|-------------|
C|--x-x-x-x-x--|
G|--x-x-x-x-x--|
C|--x-x-x-x-x--|


[Verse 1]

D|-----------------------------------------------------------------|
A|------------------------------------------------------------3b---|
F|------------------------------------------------------------3b---|
C|--2b---2---2-2---2b---2---2-3-2---2-2---2-3-2-0-2b---2---2m------| x4
G|--2b---2---2-2---2b---2---2-3-2---2-2---2-3-2-0-2b---2---2m------|
C|--2b---2---2-2---2b---2---2-3-2---2-2---2-3-2-0-2b---2---2m------|   


[Verse 2] 

"Am I the son in or out of law..."
D|--------------------------|---------------------|
A|--------------------------|---------------------|
F|--------------------------|---------------------|
C|--------------------------|----------3-3-3-3-3--|  x2
G|--------------------------|----------3-3-3-3-3--|
C|--14-14-14-14-14-14-14-14-|-14-14-14-3-3-3-3-3--|  


[Verse 3] x2

"What's going on, what's going on..."
D|---------------------|
A|---------------------|
F|---------------------|
C|--2---2---2-h3p-2-0--|  x3
G|--2---2---2-h3p-2-0--|
C|--2---2---2-h3p-2-0--| 

D|-------------|
A|-------------|
F|-------------|
C|--3-3-3-3-3--|
G|--3-3-3-3-3--|
C|--3-3-3-3-3--|


[Pre-Chorus]

D|------------------|-----------------|
A|------------------|-----------------|
F|------------------|-----------------|
C|--2-2-2-2-2-2-2-2-|-2-2-2-2---------|
G|------------------|-----------------|
C|------------------|-----------------|


[Chorus] 

(the words are just a little hint to when to start the segments; helped me)

"When I tell you I'll be fine..."
D|------fine---------|-------side--------|-------read--------|-------~ains-------|
A|-------------------|-------------------|-------------------|-------------------|
F|--5-5-5-5-5-5-5-5--|-------------------|-------------------|-------------------|
C|--5-5-5-5-5-5-5-5--|--2-2-2-2-2-2-2-2--|--0-0-0-0-0-0-0-0--|--7-7-7-7-7-7-7-7--|
G|--3-3-3-3-3-3-3-3--|--2-2-2-2-2-2-2-2--|--0-0-0-0-0-0-0-0--|--7-7-7-7-7-7-7-7--|
C|-------------------|--2-2-2-2-2-2-2-2--|--0-0-0-0-0-0-0-0--|--7-7-7-7-7-7-7-7--|

D|-------~fort-------|------~fined-------|--------read-------|-------------------|
A|-------------------|-------------------|-------------------|-------------------|
F|--5-5-5-5-5-5-5-5--|-------------------|-------------------|-------------------|
C|--5-5-5-5-5-5-5-5--|--2-2-2-2-2-2-2-2--|--0-0-0-0-0-0-0-0--|-------------------|
G|--3-3-3-3-3-3-3-3--|--2-2-2-2-2-2-2-2--|--0-0-0-0-0-0-0-0--|-------------------|
C|-------------------|--2-2-2-2-2-2-2-2--|--0-0-0-0-0-0-0-0--|-------------------|



[Verse 1]

D|-----------------------------------------------------------------|
A|------------------------------------------------------------3b---|
F|------------------------------------------------------------3b---|
C|--2b---2---2-2---2b---2---2-3-2---2-2---2-3-2-0-2b---2---2m------| x4
G|--2b---2---2-2---2b---2---2-3-2---2-2---2-3-2-0-2b---2---2m------|
C|--2b---2---2-2---2b---2---2-3-2---2-2---2-3-2-0-2b---2---2m------|   


[Verse 2] 

"If I'm your son do you hear my call..."
D|--------------------------|---------------------|
A|--------------------------|---------------------|
F|--------------------------|---------------------|
C|--------------------------|----------5-5-5-5-5--|  x2
G|--------------------------|----------5-5-5-5-5--|
C|--14-14-14-14-14-14-14-14-|-14-14-14-5-5-5-5-5--|  


[Verse 3] x2   

"What's going on, what's going on..."
D|---------------------|
A|---------------------|
F|---------------------|
C|--2---2---2-h3p-2-0--|  x3
G|--2---2---2-h3p-2-0--|
C|--2---2---2-h3p-2-0--| 

D|-------------|
A|-------------|
F|-------------|
C|--3-3-3-3-3--|
G|--3-3-3-3-3--|
C|--3-3-3-3-3--|


[Pre-Chorus]

D|------------------|-----------------|
A|------------------|-----------------|
F|------------------|-----------------|
C|--2-2-2-2-2-2-2-2-|-2-2-2-2---------|
G|------------------|-----------------|
C|------------------|-----------------|


[Chorus]      

-add strumming on the 7th fret instead of the break at the end

~ "When I tell you I'll be fine..."
D|-------------------|
A|-------------------|
F|-------------------|
C|--7-7-7-7-7-7-7-7--|
G|--7-7-7-7-7-7-7-7--|
C|--7-7-7-7-7-7-7-7--|


[Bridge 1]

-All Octive-Powerchords are played 8 times

  "What is the poison inside of me..."
D|---------------------------------|
A|---------------------------------|
F|--9--------12-------7--------5---|
C|--x--------x--------x--------x---|
G|--7--------10-------5--------3---|
C|---------------------------------|

D|---------------------------------|
A|---------------------------------|
F|--9--------12-------7--------7---|
C|--x--------x--------x--------x---|
G|--7--------10-------5--------5---|
C|---------------------------------|


["soft" Breakdown]    (low gain)

-you can bend the 1's if you want to

  ~ "We are the sons,...."
D|-------------------------------------------------|
A|-----------3----------------------3--------------|
F|-----------3----------------------3--------------|
C|--2b---1-------1b---0~----3---2-------1---2---1--|  x3
G|--2b---1-------1b---0~----3---2-------1---2---1--|
C|--2b---1-------1b---0~----3---2-------1---2---1--| 

  ~ "...the generation of disorder.        GO!"
D|-------------------------------------------------|
A|------------3------------------------------------|
F|------------3------------------------------------|
C|--2b---1-------1b---0~----3---2------------------|  x1
G|--2b---1-------1b---0~----3---2------------------|
C|--2b---1-------1b---0~----3---2------------------|


["heavy" Breakdown] 

-leave the strings ringing in the first two repeats and do the last two with full stops

D|------------------------------------------------|
A|-----------3----------------------3-------------|
F|-----------3----------------------3-------------|
C|--2b---1-------1b---0~----3---2-------1--2--1---|  x4
G|--2b---1-------1b---0~----3---2-------1--2--1---|
C|--2b---1-------1b---0~----3---2-------1--2--1---| 


[Bridge 2]

D|----------------------------------------|
A|----------------------------------------|
F|--9~-------9/12~-------12/7~------x/----|
C|--x--------x-x---------x-x--------x/----|
G|--7~-------7/10~-------10/5~------x/----|
C|----------------------------------------|


[Chorus] 

(the words are just a little hint to when to start the segments; helped me)

D|------fine---------|-------side--------|-------read--------|-------~ains-------|
A|-------------------|-------------------|-------------------|-------------------|
F|--5-5-5-5-5-5-5-5--|-------------------|-------------------|-------------------|
C|--5-5-5-5-5-5-5-5--|--2-2-2-2-2-2-2-2--|--0-0-0-0-0-0-0-0--|--7-7-7-7-7-7-7-7--|
G|--3-3-3-3-3-3-3-3--|--2-2-2-2-2-2-2-2--|--0-0-0-0-0-0-0-0--|--7-7-7-7-7-7-7-7--|
C|-------------------|--2-2-2-2-2-2-2-2--|--0-0-0-0-0-0-0-0--|--7-7-7-7-7-7-7-7--|

D|-------~fort-------|------~fined-------|--------read-------|-------------------|
A|-------------------|-------------------|-------------------|-------------------|
F|--5-5-5-5-5-5-5-5--|-------------------|-------------------|-------------------|
C|--5-5-5-5-5-5-5-5--|--2-2-2-2-2-2-2-2--|--0-0-0-0-0-0-0-0--|-------------------|
G|--3-3-3-3-3-3-3-3--|--2-2-2-2-2-2-2-2--|--0-0-0-0-0-0-0-0--|-------------------|
C|-------------------|--2-2-2-2-2-2-2-2--|--0-0-0-0-0-0-0-0--|-------------------|


["heavy" Breakdown] 

-leave the strings ringing in the first two repeats and do the last two with full stops

D|------------------------------------------------|
A|-----------3----------------------3-------------|
F|-----------3----------------------3-------------|
C|--2b---1-------1b---0~----3---2-------1--2--1---|  x4
G|--2b---1-------1b---0~----3---2-------1--2--1---|
C|--2b---1-------1b---0~----3---2-------1--2--1---|


************************************

| x  Dead note
| h  Hammer-on
| p  Pull-off
| b  Bend
| /  Slide up
| ~  Vibrato

************************************