Lemon Squeezy Records

Artist: Rammstein, Title: Los

CADGBE Resources

Create Chord Sheets Guitar Tuner Songs Videos Tuning Map

C

A

D

G

B

E

Rammstein - Los

-|----------------------------------------------------------------------------|
-|----------------------------------------------------------------------------|
-|----------------------------------------------------------------------------|
-|x-x-1-3-x-0-x-x-1-3-x-0-x-x-1-3-x-0-x-x-1-3-5-5-5---------------------------|
-|x-x-1-3-x-0-x-x-1-3-x-0-x-x-1-3-x-0-x-x-1-3-5-5-5---------------------------|
-|x-x-1-3-x-0-x-x-1-3-x-0-x-x-1-3-x-0-x-x-1-3-5-5-5---------------------------|


-|-----------------------------------------------|--b21-21-17-b20-------------|
-|---3-1---------------------3-1-----------------|----------------b21---------|
-|-----------------------------------------------|----------------------------|
-|-------3----------3------------3----------3----|----------------------------|
-|-5-------5--3-5-3---5-3--5-------5--3-5-3---5-3|----------------------------|
-|-----------------------------------------------|----------------------------|