Lemon Squeezy Records

Artist: Transit, Title: Long Lost Friends

EG#BF#BD# Resources

Create Chord Sheets Guitar Tuner Songs Videos Tuning Map

E

G#

B

F#

B

D#

Transit - Long Lost Friends

Eb|---------------------12p0---------------------      \
 B|----------12p0--------------------------------       \
Gb|----------------------------------------------        \
 B|-------12------9s12--------12-12s9-9s12-12s14-         \
Ab|--8s12----------------------------------------          \
 E|----------------------------------------------           \
                                                             x2
Eb|---------------------12p0---------------------           /
 B|----------12p0--------------------------------          /
Gb|----------------------------------------------         /
 B|-------12------9s12--------12-12s14-14s16-16v-        /
Ab|--8s12----------------------------------------       /
 E|----------------------------------------------