Artist: Beartooth, Title: Hated - CGCFAD

Card image

C

Card image

G

Card image

C

Card image

F

Card image

A

Card image

D

Beartooth - Hated

[Intro]

d|--------------------------------------|-------------------------------------|
A|--------------------------------------|-------------------------------------|
F|--------------------------------------|-------------------------------------|
C|-----7----------7----------7-------7b-|-------------------------------------|
G|--5-----5-----------------------------|--x2---------------------------------|
C|-------------8-----8----3-----3/5-----|-------------------------------------|

e|------------------------------------------------|--------------------------|
B|------------------------------------------------|--------------------------|
G|--77777777--------------------------------------|--------------------------|
D|--77777777--------------------------------------|--x2=---------------------|
A|--55555555--55555555--88888888--8-xxxx-8-xxxx-8-|--------------------------|
E|------------55555555--88888888--8-xxxx-8-xxxx-8-|--------------------------|


[Verse]

d|---------------------------------------------------------------------------|
A|---------------------------------------------------------------------------|
F|---------------------------------------------------------------------------|
C|---------------------------------------------------------------------------|
G|-8-8-8-8-888---3-3-5--5-555------------------------------------------------|
C|-8-8-8-8-888---3-3-5--5-555-x2---------------------------------------------|

d|---------------------------------------------------------------------------|
A|---*******-----------------------------------------------------------------|
F|-7-777777777777777 <-Bend the last 8---------------------------------------|
C|-7-777777777777777---------------------------------------------------------|
G|-5-555555555555555---8-8-8--8-888---3-3-5--5-555---------------------------|
C|---------------------8-8-8--8-888---3-3-5--5-555---------------------------|

d|---------------------------------------------------------------------------|
A|---------------------------------------------------------------------------|
F|---------------------------------------------------------------------------|
C|---------------------------------------------------------------------------|
G|--------------------------8-8-8--8-888---3-3-5--5-555----------------------|
C|-(Harmonic slide thing)---8-8-8--8-888---3-3-5--5-555----------------------|
  

[Pre-Chorus/Pre-Breakdown]

e|-------------|-------------------------------------------------------------|
B|-------------|-------------------------------------------------------------|
G|----7---7----|-------------------------------------------------------------|
D|------7------|-------------------------------------------------------------|
A|-/5-------5/-|-x3----------------------------------------------------------|
E|-------------|------(harmonic thing)---------------------------------------|


[Chorus]

d|---------------------------------------------------------------------------|
A|---------------------------------------------------------------------------|
F|-77777777------------------------------------------------------------------|
C|-77777777------------------------------------------------------------------|
G|-55555555-88888888-33333333-55555555-x2------------------------------------|
C|----------88888888-33333333-55555555---------------------------------------|

d|---------------------------------------------------------------------------|
A|---------------------------------------------------------------------------|
F|-77777------------------------77777777-------------------------------------|
C|-77777------------------------77777777-------------------------------------|
G|-55555--88888--55555--88888---55555555-55555555--8-------------------------|
C|--------88888--55555--88888------------55555555--8(hold)-------------------|


[Breakdown]

d|--------------------------------|-------------------------------------------|
A|--------------------------------|-------------------------------------------|
F|----7------7------7-------------|-------------------------------------------|
C|--------------------------------|--x8---------------------------------------|
G|-0-----5b-----5b-----5b--0-6666-|-------------------------------------------|
C|-0-----------------------0-6666-|-------------------------------------------|