Artist: Rammstein, Title: Deutschland - CGCFAD

Card image

C

Card image

G

Card image

C

Card image

F

Card image

A

Card image

D

Rammstein - Deutschland

Deutschland tab by Rammstein
Tuning: C G C F A D


D|-------|-------|--------|--------|-------|-------|---------|
A|-------|-------|--------|--------|-------|-------|---------|
F|-------|-------|--------|--------|-------|-------|---------|
C|2------|----5-7|12------|----12-2|3------|2------|---------| x2
G|2------|----5-7|12------|----12-2|3------|2------|---------|
C|2------|----5-7|12------|----12-2|3------|2------|/14------|

D|0-0-7-0-0-8-0-0-10-0-0-7-0-0-8-5-0|
A|----------------------------------|
F|----------------------------------|
C|----------------------------------| x4
G|----------------------------------|
C|----------------------------------|

D|-------|-------|--------|--------|-------|-------|---------|
A|-------|-------|--------|--------|-------|-------|---------|
F|-------|-------|--------|--------|-------|-------|---------|
C|2------|----5-7|12------|----12-2|3------|2------|---------|
G|2------|----5-7|12------|----12-2|3------|2------|---------|
C|2------|----5-7|12------|----12-2|3------|2------|/14------|

[Verse]

Nothing is played during the verse


[Chorus]


D|-------|-------|--------|------|-------|-------|---------|
A|-------|-------|--------|------|-------|-------|---------|
F|-------|-------|--------|------|-------|-------|---------|
C|2------|----5-7|12------|----12|3------|2------|---------|
G|2------|----5-7|12------|----12|3------|2------|---------|
C|2------|----5-7|12------|----12|3------|2------|/14------|


D|-------|-------|-------|------|-------|-------|-------|
A|-------|-------|-------|------|-------|-------|-------|
F|-------|-------|-------|------|-------|-------|-------|
C|2------|------2|0------|-----0|3------|2------|2------|
G|2------|------2|0------|-----0|3------|2------|2------|
C|2------|------2|0------|-----0|3------|2------|2------|


D|0-0-7-0-0-8-0-0-10-0-0-7-0-0-8-5-0|
A|----------------------------------|
F|----------------------------------|
C|----------------------------------| x4
G|----------------------------------|
C|----------------------------------|


[Verse]

D|-----------------------|-----------------------|-----------------------|-----------------------|
A|-----------------------|-----------------------|-----------------------|-----------------------|
F|-----------------------|-----------------------|-----------------------|-----------------------|
C|-----------------------|-----------------------|-----------------------|-----------------------|
G|-----------------------|-----------------------|-----------------------|-----------------------|
C|2-2--2-2--2-2--2-2--2-2|2-2--2-2--2-2--2-2--2-2|3-3--3-3--3-3--3-3--3-3|3-3--3-3--3-3--3-3--3-3|
  * *  * *  * *  * *  * * * *  * *  * *  * *  * * * *  * *  * *  * *  * * * *  * *  * *  * *  * *

e|-----------------------|-----------------------|-----------------------|---------|
B|-----------------------|-----------------------|-----------------------|---------|
G|-----------------------|-----------------------|-----------------------|---------|
D|-----------------------|-----------------------|-----------------------|---------|
A|-----------------------|-----------------------|-----------------------|---------|
E|0-0--0-0--0-0--0-0--0-0|0-0--0-0--0-0--0-0--0-0|2-2--2-2--2-2--2-2--2-2|2-2------|
  * *  * *  * *  * *  * * * *  * *  * *  * *  * * * *  * *  * *  * *  * * * *
[Chorus]


D|-------|-------|--------|------|-------|-------|---------|
A|-------|-------|--------|------|-------|-------|---------|
F|-------|-------|--------|------|-------|-------|---------|
C|2------|----5-7|12------|----12|3------|2------|---------|
G|2------|----5-7|12------|----12|3------|2------|---------|
C|2------|----5-7|12------|----12|3------|2------|/14------|


D|-------|-------|-------|------|-------|-------|-------|
A|-------|-------|-------|------|-------|-------|-------|
F|-------|-------|-------|------|-------|-------|-------|
C|2------|------2|0------|-----0|3------|2------|2------|
G|2------|------2|0------|-----0|3------|2------|2------|
C|2------|------2|0------|-----0|3------|2------|2------|


D|0-0-7-0-0-8-0-0-10-0-0-7-0-0-8-5-0|
A|----------------------------------|
F|----------------------------------|
C|----------------------------------| x4
G|----------------------------------|
C|----------------------------------|


[Outro]

D|-------|-------|--------|------|-------|-------|---------|
A|-------|-------|--------|------|-------|-------|---------|
F|-------|-------|--------|------|-------|-------|---------|
C|2------|----5-7|12------|----12|3------|2------|---------|
G|2------|----5-7|12------|----12|3------|2------|---------|
C|2------|----5-7|12------|----12|3------|2------|/14------|


D|-------|-------|-------|------|-------|-------|-------|
A|-------|-------|-------|------|-------|-------|-------|
F|-------|-------|-------|------|-------|-------|-------|
C|2------|------2|0------|-----0|3------|2------|2------|
G|2------|------2|0------|-----0|3------|2------|2------|
C|2------|------2|0------|-----0|3------|2------|2------|


D|0-0-7-0-0-8-0-0-10-0-0-7-0-0-8-5-0|
A|----------------------------------|
F|----------------------------------|
C|----------------------------------| x4
G|----------------------------------|
C|----------------------------------|



************************************

| /  Slide up

************************************