Artist: My Bloody Valentine, Title: Cigarette In Your Bed - DAEABE

Card image

D

Card image

A

Card image

E

Card image

A

Card image

B

Card image

E

My Bloody Valentine - Cigarette In Your Bed

Intro:

Acoustic:    Fuzz kicks in: @0:11 
E|--0-----|  |--0--|
B|--0-----|  |--0--|
A|--0-----|  |--0--|
E|--4-----|  |--0--|
A|--0-----|  |--0--|
D|--x-----|  |--0--|


Verse: Kevin barres an entire fret with his pointer finger seen live
E|--0--0--4--5--2--|
B|--0--0--4--5--2--|
A|--0--0--4--5--2--|
E|--4--7--4--5--2--|
A|--0--7--4--5--2--|
D|--x--x--4--5--2--|


Chorus: Fuzz kicks in
E|--0-----|  
B|--0-----|  
A|--0-----|  
E|--0-----| 
A|--0-----|  
D|--0-----|


@2:04: Part where Bilinda goes "da da da da da"  
E|--0--0--0---|  
B|--0--0--0---|  
A|--0--0--12--|  
E|--9--7--12--| 
A|--9--7--0---|  
D|--9--7--0---|


End: @3:09 strum this a lot at the end
E|--0--|  
B|--0--|  
A|--0--|  
E|--7--| 
A|--7--|  
D|--7--|