Lemon Squeezy Records

Artist: Analepsy, Title: Apocalyptic Premonition

A#FA#D#GC Resources

Create Chord Sheets Guitar Tuner Songs Videos Tuning Map

A#

F

A#

D#

G

C

Analepsy - Apocalyptic Premonition

C|--------|--------|-----------------|--------|--------|--------|-----------------|
 G|--------|--------|-----------------|--------|--------|--------|-----------------|
D#|--------|--------|-----------------|--------|--------|--------|-----------------|
A#|-3------|-2------|-5----4----------|--------|-3------|-2------|-5----4----------|
 F|--------|--------|-----------6-----|-6------|--------|--------|-----------6-----|
A#|--------|--------|-----------------|--------|--------|--------|-----------------|


 C|--------|--------|--------|-----------------|--------|--------|--------|-----------------|
 G|--------|--------|--------|-----------------|--------|--------|--------|-----------------|
D#|--------|--------|--------|-----------------|--------|--------|--------|-----------------|
A#|--------|-3------|-2------|-5----4----1-----|-1------|-3------|-2------|-5----4----1-----|
 F|-6------|-3------|-2------|-5----4----1-----|-1------|-3------|-2------|-5----4----1-----|
A#|--------|-3------|-2------|-5----4----1-----|-1------|-3------|-2------|-5----4----1-----|


 C|--------|--------|-----------------------------------------|-----------------------------------------|
 G|--------|--------|-----------------------------------------|-----------------------------------------|
D#|--------|--------|-----------------------------------------|-----------------------------------------|
A#|-1------|-1------|-----------------------------------------|-----------------------------------------|
 F|-1------|-1------|-1--1--1---1--1--1---1--1--1---1--1--1---|-1--1--1---1--1--1---1--1--1---1--1--1---|
A#|-1------|-1------|-1--1--1---1--1--1---1--1--1---1--1--1---|-1--1--1---1--1--1---1--1--1---1--1--1---|


 C|-----------------------------------------|-------------------------------|-----------------------------------------|
 G|-----------------------------------------|-------------------------------|-----------------------------------------|
D#|-----------------------------------------|-------------------------------|-----------------------------------------|
A#|-----------------------------------------|-------------------------------|-----------------------------------------|
 F|-1--1--1---1--1--1---1--1--1---1--1--1---|-1--1--1---1--1--1---1---2-----|-1--1--1---1--1--1---1--1--1---1--1--1---|
A#|-1--1--1---1--1--1---1--1--1---1--1--1---|-1--1--1---1--1--1---1---2-----|-1--1--1---1--1--1---1--1--1---1--1--1---|


 C|-----------------------------------------|-----------------------------------------|
 G|-----------------------------------------|-----------------------------------------|
D#|-----------------------------------------|-----------------------------------------|
A#|-----------------------------------------|-----------------------------------------|
 F|-1--1--1---1--1--1---1--1--1---1--1--1---|-1--1--1---1--1--1---1--1--1---1--1--1---|
A#|-1--1--1---1--1--1---1--1--1---1--1--1---|-1--1--1---1--1--1---1--1--1---1--1--1---|


 C|-------------------------------|-----------------------------------------|-----------------------------------------|
 G|-------------------------------|-----------------------------------------|-----------------------------------------|
D#|-------------------------------|-----------------------------------------|-----------------------------------------|
A#|-------------------------------|-----------------------------------------|-----------------------------------------|
 F|-1--1--1---1--1--1---1---2-----|-1--1--1---1--1--1---1--1--1---1--1--1---|-1--1--1---1--1--1---1--1--1---1--1--1---|
A#|-1--1--1---1--1--1---1---2-----|-1--1--1---1--1--1---1--1--1---1--1--1---|-1--1--1---1--1--1---1--1--1---1--1--1---|


 C|-----------------------------------------|-------------------------------|-----------------------------------------|
 G|-----------------------------------------|-------------------------------|-----------------------------------------|
D#|-----------------------------------------|-------------------------------|-----------------------------------------|
A#|-----------------------------------------|-------------------------------|-----------------------------------------|
 F|-1--1--1---1--1--1---1--1--1---1--1--1---|-1--1--1---1--1--1---1---2-----|-1--1--1---1--1--1---1--1--1---1--1--1---|
A#|-1--1--1---1--1--1---1--1--1---1--1--1---|-1--1--1---1--1--1---1---2-----|-1--1--1---1--1--1---1--1--1---1--1--1---|


 C|-----------------------------------------|-----------------------------------------|
 G|-----------------------------------------|-----------------------------------------|
D#|-----------------------------------------|-----------------------------------------|
A#|-----------------------------------------|-----------------------------------------|
 F|-1--1--1---1--1--1---1--1--1---1--1--1---|-1--1--1---1--1--1---1--1--1---1--1--1---|
A#|-1--1--1---1--1--1---1--1--1---1--1--1---|-1--1--1---1--1--1---1--1--1---1--1--1---|


 C|-------------------------------|---------------------------------------|-----------------------------------|
 G|-------------------------------|---------------------------------------|-----------------------------------|
D#|-------------------------------|---------------------------------------|-----------------------------------|
A#|-------------------------------|---------------------------------------|-----------------------------------|
 F|-1--1--1---1--1--1---1---2-----|-0--0--0---0--0--0---0--0--0---0---0---|-0--0--0---0--0--0---0----0----0---|
A#|-1--1--1---1--1--1---1---2-----|-0--0--0---0--0--0---0--0--0---0---0---|-0--0--0---0--0--0---0----0----0---|


 C|---------------------------------------|-----------------------------------|---------------------------------------|
 G|---------------------------------------|-----------------------------------|---------------------------------------|
D#|---------------------------------------|-----------------------------------|---------------------------------------|
A#|---------------------------------------|-----------------------------------|---------------------------------------|
 F|-0--0--0---0--0--0---0--0--0---0---0---|-0--0--0---0--0--0---1----2----1---|-0--0--0---0--0--0---0--0--0---0---0---|
A#|-0--0--0---0--0--0---0--0--0---0---0---|-0--0--0---0--0--0---1----2----1---|-0--0--0---0--0--0---0--0--0---0---0---|


 C|-----------------------------------|---------------------------------------|-----------------------------------|
 G|-----------------------------------|---------------------------------------|-----------------------------------|
D#|-----------------------------------|---------------------------------------|-----------------------------------|
A#|-----------------------------------|---------------------------------------|-----------------------------------|
 F|-0--0--0---0--0--0---0----0----0---|-0--0--0---0--0--0---0--0--0---0---0---|-0--0--0---0--0--0---1----2----1---|
A#|-0--0--0---0--0--0---0----0----0---|-0--0--0---0--0--0---0--0--0---0---0---|-0--0--0---0--0--0---1----2----1---|


 C|---------------------------------|---------------------------------|-------------------------------------------------------------------|
 G|---------------------------------|---------------------------------|-------------------------------------------------------------------|
D#|---------------------------------|---------------------------------|-------------------------------------------------------------------|
A#|---------------------------------|-----------------------------0---|-------------------------------------------------------------------|
 F|-0---1---2---1---3---2---1---2---|-3---2---1---2---1---0---1---0---|-5--5--5--------------------6--6--6--------------------3--2--1--2--|
A#|-0---1---2---1---3---2---1---2---|-3---2---1---2---1---0---1-------|----------3--3--3--0--0--0-----------4--4--4--1--1--1--3--2--1--2--|


 C|---------------------------------------------------------------|-------------------------------------------------------------------|
 G|---------------------------------------------------------------|-------------------------------------------------------------------|
D#|---------------------------------------------------------------|-------------------------------------------------------------------|
A#|---------------------------------------------------------------|-------------------------------------------------------------------|
 F|-5--5--5--------------------6--6--6--------------------3---1---|-5--5--5--------------------6--6--6--------------------3--2--1--2--|
A#|----------3--3--3--0--0--0-----------4--4--4--1--1--1--3---1---|----------3--3--3--0--0--0-----------4--4--4--1--1--1--3--2--1--2--|


 C|-----------------------------------|-------------------------------------------------------------------|
 G|-----------------------------------|-------------------------------------------------------------------|
D#|-----------------------------------|-------------------------------------------------------------------|
A#|-----------------------------------|-------------------------------------------------------------------|
 F|-0---1---2---1---2--2--1---0---1---|-5--5--5--------------------6--6--6--------------------3--2--1--2--|
A#|-0---1---2---1---2--2--1---0---1---|----------3--3--3--0--0--0-----------4--4--4--1--1--1--3--2--1--2--|


 C|---------------------------------------------------------------|-------------------------------------------------------------------|
 G|---------------------------------------------------------------|-------------------------------------------------------------------|
D#|---------------------------------------------------------------|-------------------------------------------------------------------|
A#|---------------------------------------------------------------|-------------------------------------------------------------------|
 F|-5--5--5--------------------6--6--6--------------------3---1---|-5--5--5--------------------6--6--6--------------------3--2--1--2--|
A#|----------3--3--3--0--0--0-----------4--4--4--1--1--1--3---1---|----------3--3--3--0--0--0-----------4--4--4--1--1--1--3--2--1--2--|


 C|-----------------------------------|---------------------|---------------------|
 G|-----------------------------------|---------------------|---------------------|
D#|-----------------------------------|---------------------|---------------------|
A#|-----------------------------------|---------------------|---------------------|
 F|-0---1---2---1---2--2--1---0---1---|-0----1----2----1----|-3----0----1----2----|
A#|-0---1---2---1---2--2--1---0---1---|-0----1----2----1----|-3----0----1----2----|


 C|---------------------|---------------------|---------------------|---------------------------|
 G|---------------------|---------------------|---------------------|---------------------------|
D#|---------------------|---------------------|---------------------|---------------------------|
A#|---------------------|---------------------|---------------------|---------------------------|
 F|-0----1----2----1----|-3----0----1----2----|-0----2----1----0----|-3----2----4---3---2---3---|
A#|-0----1----2----1----|-3----0----1----2----|-0----2----1----0----|-3----2----4---3---2---3---|


 C|---------------------|------------------------|---------------------|---------------------------|
 G|---------------------|------------------------|---------------------|---------------------------|
D#|---------------------|------------------------|---------------------|---------------------------|
A#|---------------------|------------------------|---------------------|---------------------------|
 F|-0----2----1----0----|-3----2----1----4---4---|-0----2----1----0----|-3----2----4---3---2---3---|
A#|-0----2----1----0----|-3----2----1------------|-0----2----1----0----|-3----2----4---3---2---3---|


 C|------------------------|-------|-------------------------------------------------------------------------|
 G|------------------------|-------|-------------------------------------------------------------------------|
D#|------------------------|-------|-------------------------------------------------------------------------|
A#|----------------0-------|-------|-------------------------------------------------------------------------|
 F|-0----2----1----0-------|-------|-------------------------------------------------------------------------|
A#|-0----2----1------------|-------|-3--3--2--2--1--1--3--3--2--2--1--1--4--4--3--3--2--2--3--3--2--2--1--1--|


 C|-------------------------------------------------------------------------|-------------------------------------------------------------------------|
 G|-------------------------------------------------------------------------|-------------------------------------------------------------------------|
D#|-------------------------------------------------------------------------|-------------------------------------------------------------------------|
A#|-------------------------------------------------------5--5--5--5--5--5--|-------------------------------------------------------------------------|
 F|-------------------------------------5--5--5--5--4--4--------------------|-------------------------------------------------------------------------|
A#|-3--3--2--2--1--1--3--3--2--2--1--1--------------------------------------|-3--3--2--2--1--1--3--3--2--2--1--1--4--4--3--3--2--2--3--3--2--2--1--1--|


 C|-------------------------------------------------------------------------|-------------------------------------------------------------------------|
 G|-------------------------------------------------------------------------|-------------------------------------------------------------------------|
D#|-------------------------------------------------------------------------|-------------------------------------------------------------------------|
A#|-------------------------------------------------------5--5--5--5--4--4--|-------------------------------------------------------------------------|
 F|-------------------------------------5--5--5--5--4--4--------------------|-------------------------------------------------------------------------|
A#|-3--3--2--2--1--1--3--3--2--2--1--1--------------------------------------|-3--3--2--2--1--1--3--3--2--2--1--1--4--4--3--3--2--2--3--3--2--2--1--1--|


 C|-------------------------------------------------------------------------|-------------------------------------------------------------------------|
 G|-------------------------------------------------------------------------|-------------------------------------------------------------------------|
D#|-------------------------------------------------------------------------|-------------------------------------------------------------------------|
A#|-------------------------------------------------------5--5--5--5--5--5--|-------------------------------------------------------------------------|
 F|-------------------------------------5--5--5--5--4--4--------------------|-------------------------------------------------------------------------|
A#|-3--3--2--2--1--1--3--3--2--2--1--1--------------------------------------|-3--3--2--2--1--1--3--3--2--2--1--1--4--4--3--3--2--2--3--3--2--2--1--1--|


 C|-------------------------------------------------------------------------|-------------------------------------|
 G|-------------------------------------------------------------------------|-------------------------------------|
D#|-------------------------------------------------------------------------|-------------------------------------|
A#|-------------------------------------------------------5--5--5--5--4--4--|-------------------------------------|
 F|-------------------------------------5--5--5--5--4--4--------------------|-0---1---1---0---1---1---0--0--0--0--|
A#|-3--3--2--2--1--1--3--3--2--2--1--1--------------------------------------|-0---1---1---0---1---1---0--0--0--0--|


 C|---------------------------------|-------------------------------------|---------------------------------|
 G|---------------------------------|-------------------------------------|---------------------------------|
D#|---------------------------------|-------------------------------------|---------------------------------|
A#|---------------------------------|-------------------------------------|---------------------------------|
 F|-0---1---1---0---1---1---2---2---|-0---1---1---0---1---1---0--0--0--0--|-0---1---1---0---1---1---2-------|
A#|-0---1---1---0---1---1---2---2---|-0---1---1---0---1---1---0--0--0--0--|-0---1---1---0---1---1---2-------|


 C|-------------------------------------|---------------------------------|-------------------------------------|
 G|-------------------------------------|---------------------------------|-------------------------------------|
D#|-------------------------------------|---------------------------------|-------------------------------------|
A#|-------------------------------------|---------------------------------|-------------------------------------|
 F|-0---1---1---0---1---1---0--0--0--0--|-0---1---1---0---1---1---2---2---|-0---1---1---0---1---1---0--0--0--0--|
A#|-0---1---1---0---1---1---0--0--0--0--|-0---1---1---0---1---1---2---2---|-0---1---1---0---1---1---0--0--0--0--|


 C|---------------------------------|-------------------------------------------------------------------|
 G|---------------------------------|-------------------------------------------------------------------|
D#|---------------------------------|-------------------------------------------------------------------|
A#|---------------------------------|-------------------------------------------------------------------|
 F|-0---1---1---0---1---1---2---2---|-5--5--5--------------------6--6--6--------------------3--2--1--2--|
A#|-0---1---1---0---1---1---2---2---|----------3--3--3--0--0--0-----------4--4--4--1--1--1--3--2--1--2--|


 C|---------------------------------------------------------------|-------------------------------------------------------------------|
 G|---------------------------------------------------------------|-------------------------------------------------------------------|
D#|---------------------------------------------------------------|-------------------------------------------------------------------|
A#|---------------------------------------------------------------|-------------------------------------------------------------------|
 F|-5--5--5--------------------6--6--6--------------------3---1---|-5--5--5--------------------6--6--6--------------------3--2--1--2--|
A#|----------3--3--3--0--0--0-----------4--4--4--1--1--1--3---1---|----------3--3--3--0--0--0-----------4--4--4--1--1--1--3--2--1--2--|


 C|-----------------------------------|-------------------------------------------------------------------|
 G|-----------------------------------|-------------------------------------------------------------------|
D#|-----------------------------------|-------------------------------------------------------------------|
A#|-----------------------------------|-------------------------------------------------------------------|
 F|-0---1---2---1---2--2--1---0---1---|-5--5--5--------------------6--6--6--------------------3--2--1--2--|
A#|-0---1---2---1---2--2--1---0---1---|----------3--3--3--0--0--0-----------4--4--4--1--1--1--3--2--1--2--|


 C|---------------------------------------------------------------|-------------------------------------------------------------------|
 G|---------------------------------------------------------------|-------------------------------------------------------------------|
D#|---------------------------------------------------------------|-------------------------------------------------------------------|
A#|---------------------------------------------------------------|-------------------------------------------------------------------|
 F|-5--5--5--------------------6--6--6--------------------3---1---|-5--5--5--------------------6--6--6--------------------3--2--1--2--|
A#|----------3--3--3--0--0--0-----------4--4--4--1--1--1--3---1---|----------3--3--3--0--0--0-----------4--4--4--1--1--1--3--2--1--2--|


 C|-----------------------------------|---------------------------------|---------------------------------|
 G|-----------------------------------|---------------------------------|---------------------------------|
D#|-----------------------------------|---------------------------------|---------------------------------|
A#|-----------------------------------|---------------------------------|---------------------------------|
 F|-0---1---2---1---2--2--1---0---1---|-0---1---2---1---3---2---1---4---|---------------------------------|
A#|-0---1---2---1---2--2--1---0---1---|-0---1---2---1---3---2---1-------|---------------------------------|


 C|---------------------------------|---------------------------------|---------------------------------|
 G|---------------------------------|---------------------------------|---------------------------------|
D#|---------------------------------|---------------------------------|---------------------------------|
A#|---------------------------------|---------------------------------|-----------------3---2---1---2---|
 F|-0---1---2---1---3---2---1---4---|-0---1---2---1---3---2---1---4---|-0---1---2---1---3---2---1---2---|
A#|-0---1---2---1---3---2---1-------|-0---1---2---1---3---2---1-------|-0---1---2---1-------------------|


 C|---------------------------------|---------------------------------|---------------------------------|
 G|---------------------------------|---------------------------------|---------------------------------|
D#|---------------------------------|---------------------------------|---------------------------------|
A#|-----------------3---2---1---2---|---------------------------------|---------------------------------|
 F|-0---1---2---1---3---2---1---2---|-0---1---2---1---3---2---1---4---|-0---1---2---1---3---2---1---4---|
A#|-0---1---2---1-------------------|-0---1---2---1---3---2---1-------|-0---1---2---1---3---2---1-------|


 C|---------------------------------|---------------------------------|---------------------------------------|
 G|---------------------------------|---------------------------------|---------------------------------------|
D#|---------------------------------|---------------------------------|---------------------------------------|
A#|-----------------3---2---1---2---|---------------------------------|---------------------------------------|
 F|-0---1---2---1---3---2---1---2---|-0---1---2---1---3---2---1---2---|-0--0--0---0--0--0---0--0--0---0---0---|
A#|-0---1---2---1-------------------|-0---1---2---1---3---2---1---2---|-0--0--0---0--0--0---0--0--0---0---0---|


 C|-----------------------------------|---------------------------------------|-----------------------------------|
 G|-----------------------------------|---------------------------------------|-----------------------------------|
D#|-----------------------------------|---------------------------------------|-----------------------------------|
A#|-----------------------------------|---------------------------------------|-----------------------------------|
 F|-0--0--0---0--0--0---0----0----0---|-0--0--0---0--0--0---0--0--0---0---0---|-0--0--0---0--0--0---1----2----1---|
A#|-0--0--0---0--0--0---0----0----0---|-0--0--0---0--0--0---0--0--0---0---0---|-0--0--0---0--0--0---1----2----1---|


 C|---------------------------------------|-----------------------------------|---------------------------------------|
 G|---------------------------------------|-----------------------------------|---------------------------------------|
D#|---------------------------------------|-----------------------------------|---------------------------------------|
A#|---------------------------------------|-----------------------------------|---------------------------------------|
 F|-0--0--0---0--0--0---0--0--0---0---0---|-0--0--0---0--0--0---0----0----0---|-0--0--0---0--0--0---0--0--0---0---0---|
A#|-0--0--0---0--0--0---0--0--0---0---0---|-0--0--0---0--0--0---0----0----0---|-0--0--0---0--0--0---0--0--0---0---0---|


 C|-----------------------------------|-----------------------------------------|-----------------------------------------|
 G|-----------------------------------|-----------------------------------------|-----------------------------------------|
D#|-----------------------------------|-----------------------------------------|-----------------------------------------|
A#|-----------------------------------|-----------------------------------------|-----------------------------------------|
 F|-0--0--0---0--0--0---1----2----1---|-3--3--3---3--3--3---3--3--3---3--3--3---|-2--2--2---2--2--2---2--2--2---2--2--2---|
A#|-0--0--0---0--0--0---1----2----1---|-3--3--3---3--3--3---3--3--3---3--3--3---|-2--2--2---2--2--2---2--2--2---2--2--2---|


 C|-----------------------------------------|-----------------------------------------|
 G|-----------------------------------------|-----------------------------------------|
D#|-----------------------------------------|-----------------------------------------|
A#|-----------------------------------------|-----------------------------------------|
 F|-5--5--5---4--4--4---1--1--1---1--1--1---|-1--1--1---1--1--1---1--1--1---1--1--1---|
A#|-5--5--5---4--4--4---1--1--1---1--1--1---|-1--1--1---1--1--1---1--1--1---1--1--1---|


 C|-----------------------------------------|-----------------------------------------|
 G|-----------------------------------------|-----------------------------------------|
D#|-----------------------------------------|-----------------------------------------|
A#|-----------------------------------------|-----------------------------------------|
 F|-3--3--3---3--3--3---3--3--3---3--3--3---|-2--2--2---2--2--2---2--2--2---2--2--2---|
A#|-3--3--3---3--3--3---3--3--3---3--3--3---|-2--2--2---2--2--2---2--2--2---2--2--2---|


 C|-----------------------------------------|-------------------------------------------|
 G|-----------------------------------------|-------------------------------------------|
D#|-----------------------------------------|-------------------------------------------|
A#|-----------------------------------------|-------------------------------------------|
 F|-5--5--5---4--4--4---1--1--1---1--1--1---|-1--1--1---1--1--1---1--1--1---1--1--1--1--|
A#|-5--5--5---4--4--4---1--1--1---1--1--1---|-1--1--1---1--1--1---1--1--1---1--1--1--1--|


 C|--------|--------|-----------------|--------|--------|
 G|--------|--------|-----------------|--------|--------|
D#|--------|--------|-----------------|--------|--------|
A#|-3------|-2------|-5----4----1-----|-1------|-1------|
 F|-3------|-2------|-5----4----1-----|-1------|-1------|
A#|-3------|-2------|-5----4----1-----|-1------|-1------|





Track 2: Diogo Santana

 C|--------|--------|-----------------|--------|--------|--------|-----------------|
 G|--------|--------|-----------------|--------|--------|--------|-----------------|
D#|-5------|-4------|-7----6----------|--------|-5------|-4------|-7----6----------|
A#|--------|--------|-----------8-----|-8------|--------|--------|-----------8-----|
 F|--------|--------|-----------------|--------|--------|--------|-----------------|
A#|--------|--------|-----------------|--------|--------|--------|-----------------|


 C|--------|--------|--------|-----------------|--------|--------|--------|-10---9----------|
 G|--------|-13-----|-12-----|-----------------|--------|-13-----|-12-----|-----------11----|
D#|--------|--------|--------|-7----6----------|--------|--------|--------|-7----6----------|
A#|-8------|-10-----|-9------|-----------8-----|-8------|-10-----|-9------|-----------8-----|
 F|--------|--------|--------|-----------------|--------|--------|--------|-----------------|
A#|--------|--------|--------|-----------------|--------|--------|--------|-----------------|


 C|--------|--------|-----------------------------------------|-----------------------------------------|
 G|-11-----|-11-----|-----------------------------------------|-----------------------------------------|
D#|--------|--------|-----------------------------------------|-----------------------------------------|
A#|-8------|-8------|-----------------------------------------|-----------------------------------------|
 F|--------|--------|-1--1--1---1--1--1---1--1--1---1--1--1---|-1--1--1---1--1--1---1--1--1---1--1--1---|
A#|--------|--------|-1--1--1---1--1--1---1--1--1---1--1--1---|-1--1--1---1--1--1---1--1--1---1--1--1---|


 C|-----------------------------------------|-------------------------------|-----------------------------------------|
 G|-----------------------------------------|-------------------------------|-----------------------------------------|
D#|-----------------------------------------|-------------------------------|-----------------------------------------|
A#|-----------------------------------------|-------------------------------|-----------------------------------------|
 F|-1--1--1---1--1--1---1--1--1---1--1--1---|-1--1--1---1--1--1---1---2-----|-1--1--1---1--1--1---1--1--1---1--1--1---|
A#|-1--1--1---1--1--1---1--1--1---1--1--1---|-1--1--1---1--1--1---1---2-----|-1--1--1---1--1--1---1--1--1---1--1--1---|


 C|-----------------------------------------|-----------------------------------------|
 G|-----------------------------------------|-----------------------------------------|
D#|-----------------------------------------|-----------------------------------------|
A#|-----------------------------------------|-----------------------------------------|
 F|-1--1--1---1--1--1---1--1--1---1--1--1---|-1--1--1---1--1--1---1--1--1---1--1--1---|
A#|-1--1--1---1--1--1---1--1--1---1--1--1---|-1--1--1---1--1--1---1--1--1---1--1--1---|


 C|-------------------------------|-----------------------------------------|-----------------------------------------|
 G|-------------------------------|-----------------------------------------|-----------------------------------------|
D#|-------------------------------|-----------------------------------------|-----------------------------------------|
A#|-------------------------------|-----------------------------------------|-----------------------------------------|
 F|-1--1--1---1--1--1---1---2-----|-1--1--1---1--1--1---1--1--1---1--1--1---|-1--1--1---1--1--1---1--1--1---1--1--1---|
A#|-1--1--1---1--1--1---1---2-----|-1--1--1---1--1--1---1--1--1---1--1--1---|-1--1--1---1--1--1---1--1--1---1--1--1---|


 C|-----------------------------------------|-------------------------------|-----------------------------------------|
 G|-----------------------------------------|-------------------------------|-----------------------------------------|
D#|-----------------------------------------|-------------------------------|-----------------------------------------|
A#|-----------------------------------------|-------------------------------|-----------------------------------------|
 F|-1--1--1---1--1--1---1--1--1---1--1--1---|-1--1--1---1--1--1---1---2-----|-1--1--1---1--1--1---1--1--1---1--1--1---|
A#|-1--1--1---1--1--1---1--1--1---1--1--1---|-1--1--1---1--1--1---1---2-----|-1--1--1---1--1--1---1--1--1---1--1--1---|


 C|-----------------------------------------|-----------------------------------------|
 G|-----------------------------------------|-----------------------------------------|
D#|-----------------------------------------|-----------------------------------------|
A#|-----------------------------------------|-----------------------------------------|
 F|-1--1--1---1--1--1---1--1--1---1--1--1---|-1--1--1---1--1--1---1--1--1---1--1--1---|
A#|-1--1--1---1--1--1---1--1--1---1--1--1---|-1--1--1---1--1--1---1--1--1---1--1--1---|


 C|-------------------------------|---------------------------------------|-----------------------------------|
 G|-------------------------------|---------------------------------------|-----------------------------------|
D#|-------------------------------|---------------------------------------|-----------------------------------|
A#|-------------------------------|---------------------------------------|-----------------------------------|
 F|-1--1--1---1--1--1---1---2-----|-0--0--0---0--0--0---0--0--0---0---0---|-0--0--0---0--0--0---0----0----0---|
A#|-1--1--1---1--1--1---1---2-----|-0--0--0---0--0--0---0--0--0---0---0---|-0--0--0---0--0--0---0----0----0---|


 C|---------------------------------------|-----------------------------------|---------------------------------------|
 G|---------------------------------------|-----------------------------------|---------------------------------------|
D#|---------------------------------------|-----------------------------------|---------------------------------------|
A#|---------------------------------------|-----------------------------------|---------------------------------------|
 F|-0--0--0---0--0--0---0--0--0---0---0---|-0--0--0---0--0--0---1----2----1---|-0--0--0---0--0--0---0--0--0---0---0---|
A#|-0--0--0---0--0--0---0--0--0---0---0---|-0--0--0---0--0--0---1----2----1---|-0--0--0---0--0--0---0--0--0---0---0---|


 C|-----------------------------------|---------------------------------------|-----------------------------------|
 G|-----------------------------------|---------------------------------------|-----------------------------------|
D#|-----------------------------------|---------------------------------------|-----------------------------------|
A#|-----------------------------------|---------------------------------------|-----------------------------------|
 F|-0--0--0---0--0--0---0----0----0---|-0--0--0---0--0--0---0--0--0---0---0---|-0--0--0---0--0--0---1----2----1---|
A#|-0--0--0---0--0--0---0----0----0---|-0--0--0---0--0--0---0--0--0---0---0---|-0--0--0---0--0--0---1----2----1---|


 C|---------------------------------|---------------------------------|--------------------|
 G|---------------------------------|---------------------------------|--------------------|
D#|---------------------------------|---------------------------------|--------------------|
A#|---------------------------------|-----------------------------0---|--------------------|
 F|-0---1---2---1---3---2---1---2---|-3---2---1---2---1---0---1---0---|--------3--2--1--2--|
A#|-0---1---2---1---3---2---1---2---|-3---2---1---2---1---0---1-------|--------3--2--1--2--|


 C|---------------------------------------------------------------|-------------------------------------------------------------------|
 G|---------------------------------------------------------------|-------------------------------------------------------------------|
D#|---------------------------------------------------------------|-------------------------------------------------------------------|
A#|---------------------------------------------------------------|-------------------------------------------------------------------|
 F|-5--5--5--------------------6--6--6--------------------3---1---|-5--5--5--------------------6--6--6--------------------3--2--1--2--|
A#|----------3--3--3--0--0--0-----------4--4--4--1--1--1--3---1---|----------3--3--3--0--0--0-----------4--4--4--1--1--1--3--2--1--2--|


 C|-----------------------------------|-------------------------------------------------------------------|
 G|-----------------------------------|-------------------------------------------------------------------|
D#|-----------------------------------|-------------------------------------------------------------------|
A#|-----------------------------------|-------------------------------------------------------------------|
 F|-0---1---2---1---2--2--1---0---1---|-5--5--5--------------------6--6--6--------------------3--2--1--2--|
A#|-0---1---2---1---2--2--1---0---1---|----------3--3--3--0--0--0-----------4--4--4--1--1--1--3--2--1--2--|


 C|---------------------------------------------------------------|-------------------------------------------------------------------|
 G|---------------------------------------------------------------|-------------------------------------------------------------------|
D#|---------------------------------------------------------------|-------------------------------------------------------------------|
A#|---------------------------------------------------------------|-------------------------------------------------------------------|
 F|-5--5--5--------------------6--6--6--------------------3---1---|-5--5--5--------------------6--6--6--------------------3--2--1--2--|
A#|----------3--3--3--0--0--0-----------4--4--4--1--1--1--3---1---|----------3--3--3--0--0--0-----------4--4--4--1--1--1--3--2--1--2--|


 C|-----------------------------------|---------------------|---------------------|
 G|-----------------------------------|---------------------|---------------------|
D#|-----------------------------------|---------------------|---------------------|
A#|-----------------------------------|---------------------|---------------------|
 F|-0---1---2---1---2--2--1---0---1---|-0----1----2----1----|-3----0----1----2----|
A#|-0---1---2---1---2--2--1---0---1---|-0----1----2----1----|-3----0----1----2----|


 C|---------------------|---------------------|---------------------|---------------------------|
 G|---------------------|---------------------|---------------------|---------------------------|
D#|---------------------|---------------------|---------------------|---------------------------|
A#|---------------------|---------------------|---------------------|---------------------------|
 F|-0----1----2----1----|-3----0----1----2----|-0----2----1----0----|-3----2----4---3---2---3---|
A#|-0----1----2----1----|-3----0----1----2----|-0----2----1----0----|-3----2----4---3---2---3---|


 C|---------------------|------------------------|---------------------|---------------------------|
 G|---------------------|------------------------|---------------------|---------------------------|
D#|---------------------|------------------------|---------------------|---------------------------|
A#|---------------------|------------------------|---------------------|---------------------------|
 F|-0----2----1----0----|-3----2----1----4---4---|-0----2----1----0----|-3----2----4---3---2---3---|
A#|-0----2----1----0----|-3----2----1------------|-0----2----1----0----|-3----2----4---3---2---3---|


 C|------------------------|-------|-------------------------------------------------------------------------|
 G|------------------------|-------|-------------------------------------------------------------------------|
D#|------------------------|-------|-------------------------------------------------------------------------|
A#|----------------0-------|-------|-------------------------------------------------------------------------|
 F|-0----2----1----0-------|-------|-------------------------------------------------------------------------|
A#|-0----2----1------------|-------|-3--3--2--2--1--1--3--3--2--2--1--1--4--4--3--3--2--2--3--3--2--2--1--1--|


 C|-------------------------------------------------------------------------|-------------------------------------------------------------------------|
 G|-------------------------------------------------------------------------|-------------------------------------------------------------------------|
D#|-------------------------------------------------------------------------|-------------------------------------------------------------------------|
A#|-------------------------------------------------------5--5--5--5--5--5--|-------------------------------------------------------------------------|
 F|-------------------------------------5--5--5--5--4--4--------------------|-------------------------------------------------------------------------|
A#|-3--3--2--2--1--1--3--3--2--2--1--1--------------------------------------|-3--3--2--2--1--1--3--3--2--2--1--1--4--4--3--3--2--2--3--3--2--2--1--1--|


 C|-------------------------------------------------------------------------|-------------------------------------------------------------------------|
 G|-------------------------------------------------------------------------|-------------------------------------------------------------------------|
D#|-------------------------------------------------------------------------|-------------------------------------------------------------------------|
A#|-------------------------------------------------------5--5--5--5--4--4--|-------------------------------------------------------------------------|
 F|-------------------------------------5--5--5--5--4--4--------------------|-------------------------------------------------------------------------|
A#|-3--3--2--2--1--1--3--3--2--2--1--1--------------------------------------|-3--3--2--2--1--1--3--3--2--2--1--1--4--4--3--3--2--2--3--3--2--2--1--1--|


 C|-------------------------------------------------------------------------|-------------------------------------------------------------------------|
 G|-------------------------------------------------------------------------|-------------------------------------------------------------------------|
D#|-------------------------------------------------------------------------|-------------------------------------------------------------------------|
A#|-------------------------------------------------------5--5--5--5--5--5--|-------------------------------------------------------------------------|
 F|-------------------------------------5--5--5--5--4--4--------------------|-------------------------------------------------------------------------|
A#|-3--3--2--2--1--1--3--3--2--2--1--1--------------------------------------|-3--3--2--2--1--1--3--3--2--2--1--1--4--4--3--3--2--2--3--3--2--2--1--1--|


 C|-------------------------------------------------------------------------|-------------------------------------|
 G|-------------------------------------------------------------------------|-------------------------------------|
D#|-------------------------------------------------------------------------|-------------------------------------|
A#|-------------------------------------------------------5--5--5--5--4--4--|-------------------------------------|
 F|-------------------------------------5--5--5--5--4--4--------------------|-0---1---1---0---1---1---0--0--0--0--|
A#|-3--3--2--2--1--1--3--3--2--2--1--1--------------------------------------|-0---1---1---0---1---1---0--0--0--0--|


 C|---------------------------------|-------------------------------------|---------------------------------|
 G|---------------------------------|-------------------------------------|---------------------------------|
D#|---------------------------------|-------------------------------------|---------------------------------|
A#|---------------------------------|-------------------------------------|---------------------------------|
 F|-0---1---1---0---1---1---2---2---|-0---1---1---0---1---1---0--0--0--0--|-0---1---1---0---1---1---2-------|
A#|-0---1---1---0---1---1---2---2---|-0---1---1---0---1---1---0--0--0--0--|-0---1---1---0---1---1---2-------|


 C|-------------------------------------|---------------------------------|-------------------------------------|
 G|-------------------------------------|---------------------------------|-------------------------------------|
D#|-------------------------------------|---------------------------------|-------------------------------------|
A#|-------------------------------------|---------------------------------|-------------------------------------|
 F|-0---1---1---0---1---1---0--0--0--0--|-0---1---1---0---1---1---2---2---|-0---1---1---0---1---1---0--0--0--0--|
A#|-0---1---1---0---1---1---0--0--0--0--|-0---1---1---0---1---1---2---2---|-0---1---1---0---1---1---0--0--0--0--|


 C|---------------------------------|-------------------------------------------------------------------|
 G|---------------------------------|-------------------------------------------------------------------|
D#|---------------------------------|-------------------------------------------------------------------|
A#|---------------------------------|-------------------------------------------------------------------|
 F|-0---1---1---0---1---1---2---2---|-5--5--5--------------------6--6--6--------------------3--2--1--2--|
A#|-0---1---1---0---1---1---2---2---|----------3--3--3--0--0--0-----------4--4--4--1--1--1--3--2--1--2--|


 C|---------------------------------------------------------------|-------------------------------------------------------------------|
 G|---------------------------------------------------------------|-------------------------------------------------------------------|
D#|---------------------------------------------------------------|-------------------------------------------------------------------|
A#|---------------------------------------------------------------|-------------------------------------------------------------------|
 F|-5--5--5--------------------6--6--6--------------------3---1---|-5--5--5--------------------6--6--6--------------------3--2--1--2--|
A#|----------3--3--3--0--0--0-----------4--4--4--1--1--1--3---1---|----------3--3--3--0--0--0-----------4--4--4--1--1--1--3--2--1--2--|


 C|-----------------------------------|-------------------------------------------------------------------|
 G|-----------------------------------|-------------------------------------------------------------------|
D#|-----------------------------------|-------------------------------------------------------------------|
A#|-----------------------------------|-------------------------------------------------------------------|
 F|-0---1---2---1---2--2--1---0---1---|-5--5--5--------------------6--6--6--------------------3--2--1--2--|
A#|-0---1---2---1---2--2--1---0---1---|----------3--3--3--0--0--0-----------4--4--4--1--1--1--3--2--1--2--|


 C|---------------------------------------------------------------|-------------------------------------------------------------------|
 G|---------------------------------------------------------------|-------------------------------------------------------------------|
D#|---------------------------------------------------------------|-------------------------------------------------------------------|
A#|---------------------------------------------------------------|-------------------------------------------------------------------|
 F|-5--5--5--------------------6--6--6--------------------3---1---|-5--5--5--------------------6--6--6--------------------3--2--1--2--|
A#|----------3--3--3--0--0--0-----------4--4--4--1--1--1--3---1---|----------3--3--3--0--0--0-----------4--4--4--1--1--1--3--2--1--2--|


 C|-----------------------------------|--------|---------------------------------|
 G|-----------------------------------|--------|---------------------------------|
D#|-----------------------------------|--------|---------------------------------|
A#|-----------------------------------|--------|-------------------------1---2---|
 F|-0---1---2---1---2--2--1---0---1---|--------|-0---1---2---1---3---2---1---2---|
A#|-0---1---2---1---2--2--1---0---1---|--------|-0---1---2---1---3---2-----------|


 C|---------------------------------|---------------------------------|---------------------------------|
 G|---------------------------------|---------------------------------|---------------------------------|
D#|---------------------------------|---------------------------------|---------------------------------|
A#|---------------------------------|---------------------------------|-----------------3---2---1---2---|
 F|-0---1---2---1---3---2---1---4---|-0---1---2---1---3---2---1---4---|-0---1---2---1---3---2---1---2---|
A#|-0---1---2---1---3---2---1-------|-0---1---2---1---3---2---1-------|-0---1---2---1-------------------|


 C|---------------------------------|---------------------------------|---------------------------------|
 G|---------------------------------|---------------------------------|---------------------------------|
D#|---------------------------------|---------------------------------|---------------------------------|
A#|-----------------3---2---1---2---|---------------------------------|---------------------------------|
 F|-0---1---2---1---3---2---1---2---|-0---1---2---1---3---2---1---4---|-0---1---2---1---3---2---1---4---|
A#|-0---1---2---1-------------------|-0---1---2---1---3---2---1-------|-0---1---2---1---3---2---1-------|


 C|---------------------------------|---------------------------------|---------------------------------------|
 G|---------------------------------|---------------------------------|---------------------------------------|
D#|---------------------------------|---------------------------------|---------------------------------------|
A#|-----------------3---2---1---2---|---------------------------------|---------------------------------------|
 F|-0---1---2---1---3---2---1---2---|-0---1---2---1---3---2---1---2---|-0--0--0---0--0--0---0--0--0---0---0---|
A#|-0---1---2---1-------------------|-0---1---2---1---3---2---1---2---|-0--0--0---0--0--0---0--0--0---0---0---|


 C|-----------------------------------|---------------------------------------|-----------------------------------|
 G|-----------------------------------|---------------------------------------|-----------------------------------|
D#|-----------------------------------|---------------------------------------|-----------------------------------|
A#|-----------------------------------|---------------------------------------|-----------------------------------|
 F|-0--0--0---0--0--0---0----0----0---|-0--0--0---0--0--0---0--0--0---0---0---|-0--0--0---0--0--0---1----2----1---|
A#|-0--0--0---0--0--0---0----0----0---|-0--0--0---0--0--0---0--0--0---0---0---|-0--0--0---0--0--0---1----2----1---|


 C|---------------------------------------|-----------------------------------|---------------------------------------|
 G|---------------------------------------|-----------------------------------|---------------------------------------|
D#|---------------------------------------|-----------------------------------|---------------------------------------|
A#|---------------------------------------|-----------------------------------|---------------------------------------|
 F|-0--0--0---0--0--0---0--0--0---0---0---|-0--0--0---0--0--0---0----0----0---|-0--0--0---0--0--0---0--0--0---0---0---|
A#|-0--0--0---0--0--0---0--0--0---0---0---|-0--0--0---0--0--0---0----0----0---|-0--0--0---0--0--0---0--0--0---0---0---|


 C|-----------------------------------|-----------------------------------------|-----------------------------------------|
 G|-----------------------------------|-----------------------------------------|-----------------------------------------|
D#|-----------------------------------|-----------------------------------------|-----------------------------------------|
A#|-----------------------------------|-----------------------------------------|-----------------------------------------|
 F|-0--0--0---0--0--0---1----2----1---|-3--3--3---3--3--3---3--3--3---3--3--3---|-2--2--2---2--2--2---2--2--2---2--2--2---|
A#|-0--0--0---0--0--0---1----2----1---|-3--3--3---3--3--3---3--3--3---3--3--3---|-2--2--2---2--2--2---2--2--2---2--2--2---|


 C|-----------------------------------------|-----------------------------------------|
 G|-----------------------------------------|-----------------------------------------|
D#|-----------------------------------------|-----------------------------------------|
A#|-----------------------------------------|-----------------------------------------|
 F|-5--5--5---4--4--4---1--1--1---1--1--1---|-1--1--1---1--1--1---1--1--1---1--1--1---|
A#|-5--5--5---4--4--4---1--1--1---1--1--1---|-1--1--1---1--1--1---1--1--1---1--1--1---|


 C|-----------------------------------------|-----------------------------------------|
 G|-----------------------------------------|-----------------------------------------|
D#|-----------------------------------------|-----------------------------------------|
A#|-----------------------------------------|-----------------------------------------|
 F|-3--3--3---3--3--3---3--3--3---3--3--3---|-2--2--2---2--2--2---2--2--2---2--2--2---|
A#|-3--3--3---3--3--3---3--3--3---3--3--3---|-2--2--2---2--2--2---2--2--2---2--2--2---|


 C|-----------------------------------------|-------------------------------------------|
 G|-----------------------------------------|-------------------------------------------|
D#|-----------------------------------------|-------------------------------------------|
A#|-----------------------------------------|-------------------------------------------|
 F|-5--5--5---4--4--4---1--1--1---1--1--1---|-1--1--1---1--1--1---1--1--1---1--1--1--1--|
A#|-5--5--5---4--4--4---1--1--1---1--1--1---|-1--1--1---1--1--1---1--1--1---1--1--1--1--|


 C|--------|--------|-----------------|--------|--------|
 G|--------|--------|-----------------|--------|--------|
D#|--------|--------|-----------------|--------|--------|
A#|-3------|-2------|-5----4----------|--------|--------|
 F|-3------|-2------|-----------6-----|-6------|-6------|
A#|-3------|-2------|-----------------|--------|--------|





Track 3: Flávio Pereira

D#|--------|--------|--------|--------|--------|--------|--------|--------|--------|
A#|--------|--------|--------|--------|--------|--------|--------|--------|--------|
 F|--------|--------|--------|--------|--------|--------|--------|--------|--------|
A#|--------|--------|--------|--------|--------|--------|--------|--------|-3------|


D#|--------|-----------------|--------|--------|--------|-----------------|--------|
A#|--------|-----------------|--------|--------|--------|-----------------|--------|
 F|--------|-----------------|--------|--------|--------|-----------------|--------|
A#|-2------|-5----4----1-----|-1------|-3------|-2------|-5----4----1-----|-1------|


D#|--------|-----------------------------------------|-----------------------------------------|
A#|--------|-----------------------------------------|-----------------------------------------|
 F|--------|-----------------------------------------|-----------------------------------------|
A#|-1------|-1--1--1---1--1--1---1--1--1---1--1--1---|-1--1--1---1--1--1---1--1--1---1--1--1---|


D#|-----------------------------------------|-------------------------------|-----------------------------------------|
A#|-----------------------------------------|-------------------------------|-----------------------------------------|
 F|-----------------------------------------|-------------------------------|-----------------------------------------|
A#|-1--1--1---1--1--1---1--1--1---1--1--1---|-1--1--1---1--1--1---1---2-----|-1--1--1---1--1--1---1--1--1---1--1--1---|


D#|-----------------------------------------|-----------------------------------------|
A#|-----------------------------------------|-----------------------------------------|
 F|-----------------------------------------|-----------------------------------------|
A#|-1--1--1---1--1--1---1--1--1---1--1--1---|-1--1--1---1--1--1---1--1--1---1--1--1---|


D#|-------------------------------|-----------------------------------------|-----------------------------------------|
A#|-------------------------------|-----------------------------------------|-----------------------------------------|
 F|-------------------------------|-----------------------------------------|-----------------------------------------|
A#|-1--1--1---1--1--1---1---2-----|-1--1--1---1--1--1---1--1--1---1--1--1---|-1--1--1---1--1--1---1--1--1---1--1--1---|


D#|-----------------------------------------|-------------------------------|-----------------------------------------|
A#|-----------------------------------------|-------------------------------|-----------------------------------------|
 F|-----------------------------------------|-------------------------------|-----------------------------------------|
A#|-1--1--1---1--1--1---1--1--1---1--1--1---|-1--1--1---1--1--1---1---2-----|-1--1--1---1--1--1---1--1--1---1--1--1---|


D#|-----------------------------------------|-----------------------------------------|
A#|-----------------------------------------|-----------------------------------------|
 F|-----------------------------------------|-----------------------------------------|
A#|-1--1--1---1--1--1---1--1--1---1--1--1---|-1--1--1---1--1--1---1--1--1---1--1--1---|


D#|-------------------------------|---------------------------------------|-----------------------------------|
A#|-------------------------------|---------------------------------------|-----------------------------------|
 F|-------------------------------|---------------------------------------|-----------------------------------|
A#|-1--1--1---1--1--1---1---2-----|-0--0--0---0--0--0---0--0--0---0---0---|-0--0--0---0--0--0---0----0----0---|


D#|---------------------------------------|-----------------------------------|---------------------------------------|
A#|---------------------------------------|-----------------------------------|---------------------------------------|
 F|---------------------------------------|-----------------------------------|---------------------------------------|
A#|-0--0--0---0--0--0---0--0--0---0---0---|-0--0--0---0--0--0---1----2----1---|-0--0--0---0--0--0---0--0--0---0---0---|


D#|-----------------------------------|---------------------------------------|-----------------------------------|
A#|-----------------------------------|---------------------------------------|-----------------------------------|
 F|-----------------------------------|---------------------------------------|-----------------------------------|
A#|-0--0--0---0--0--0---0----0----0---|-0--0--0---0--0--0---0--0--0---0---0---|-0--0--0---0--0--0---1----2----1---|


D#|---------------------------------|---------------------------------|--------------------|
A#|---------------------------------|---------------------------------|--------------------|
 F|---------------------------------|-----------------------------0---|--------------------|
A#|-0---1---2---1---3---2---1---2---|-3---2---1---2---1---0---1-------|--------3--2--1--2--|


D#|---------------------------------------------------------------|-------------------------------------------------------------------|
A#|---------------------------------------------------------------|-------------------------------------------------------------------|
 F|-5--5--5--------------------6--6--6----------------------------|-5--5--5--------------------6--6--6--------------------------------|
A#|----------3--3--3--0--0--0-----------4--4--4--1--1--1--3---1---|----------3--3--3--0--0--0-----------4--4--4--1--1--1--3--2--1--2--|


D#|-----------------------------------|-------------------------------------------------------------------|
A#|-----------------------------------|-------------------------------------------------------------------|
 F|-----------------------------------|-5--5--5--------------------6--6--6--------------------------------|
A#|-0---1---2---1---2--2--1---0---1---|----------3--3--3--0--0--0-----------4--4--4--1--1--1--3--2--1--2--|


D#|---------------------------------------------------------------|-------------------------------------------------------------------|
A#|---------------------------------------------------------------|-------------------------------------------------------------------|
 F|-5--5--5--------------------6--6--6----------------------------|-5--5--5--------------------6--6--6--------------------------------|
A#|----------3--3--3--0--0--0-----------4--4--4--1--1--1--3---1---|----------3--3--3--0--0--0-----------4--4--4--1--1--1--3--2--1--2--|


D#|-----------------------------------|---------------------|---------------------|
A#|-----------------------------------|---------------------|---------------------|
 F|-----------------------------------|---------------------|---------------------|
A#|-0---1---2---1---2--2--1---0---1---|-0----1----2----1----|-3----0----1----2----|


D#|---------------------|---------------------|---------------------|---------------------------|
A#|---------------------|---------------------|---------------------|---------------------------|
 F|---------------------|---------------------|---------------------|---------------------------|
A#|-0----1----2----1----|-3----0----1----2----|-0----2----1----0----|-3----2----4---3---2---3---|


D#|---------------------|---------------------|---------------------|---------------------------|
A#|---------------------|---------------------|---------------------|---------------------------|
 F|---------------------|---------------------|---------------------|---------------------------|
A#|-0----2----1----0----|-3----2----1----0----|-0----2----1----0----|-3----2----4---3---2---3---|


D#|------------------------|-------|-------------------------------------------------------------------------|
A#|------------------------|-------|-------------------------------------------------------------------------|
 F|------------------------|-------|-------------------------------------------------------------------------|
A#|-0----2----1----0-------|-------|-3--3--2--2--1--1--3--3--2--2--1--1--4--4--3--3--2--2--3--3--2--2--1--1--|


D#|-------------------------------------------------------------------------|-------------------------------------------------------------------------|
A#|-------------------------------------------------------5--5--5--5--5--5--|-------------------------------------------------------------------------|
 F|-------------------------------------5--5--5--5--4--4--------------------|-------------------------------------------------------------------------|
A#|-3--3--2--2--1--1--3--3--2--2--1--1--------------------------------------|-3--3--2--2--1--1--3--3--2--2--1--1--4--4--3--3--2--2--3--3--2--2--1--1--|


D#|-------------------------------------------------------------------------|-------------------------------------------------------------------------|
A#|-------------------------------------------------------5--5--5--5--4--4--|-------------------------------------------------------------------------|
 F|-------------------------------------5--5--5--5--4--4--------------------|-------------------------------------------------------------------------|
A#|-3--3--2--2--1--1--3--3--2--2--1--1--------------------------------------|-3--3--2--2--1--1--3--3--2--2--1--1--4--4--3--3--2--2--3--3--2--2--1--1--|


D#|-------------------------------------------------------------------------|-------------------------------------------------------------------------|
A#|-------------------------------------------------------5--5--5--5--5--5--|-------------------------------------------------------------------------|
 F|-------------------------------------5--5--5--5--4--4--------------------|-------------------------------------------------------------------------|
A#|-3--3--2--2--1--1--3--3--2--2--1--1--------------------------------------|-3--3--2--2--1--1--3--3--2--2--1--1--4--4--3--3--2--2--3--3--2--2--1--1--|


D#|-------------------------------------------------------------------------|-------------------------------------|
A#|-------------------------------------------------------5--5--5--5--4--4--|-------------------------------------|
 F|-------------------------------------5--5--5--5--4--4--------------------|-------------------------------------|
A#|-3--3--2--2--1--1--3--3--2--2--1--1--------------------------------------|-0---1---1---0---1---1---0--0--0--0--|


D#|---------------------------------|-------------------------------------|---------------------------------|
A#|---------------------------------|-------------------------------------|---------------------------------|
 F|---------------------------------|-------------------------------------|---------------------------------|
A#|-0---1---1---0---1---1---2---2---|-0---1---1---0---1---1---0--0--0--0--|-0---1---1---0---1---1---2-------|


D#|-------------------------------------|---------------------------------|-------------------------------------|
A#|-------------------------------------|---------------------------------|-------------------------------------|
 F|-------------------------------------|---------------------------------|-------------------------------------|
A#|-0---1---1---0---1---1---0--0--0--0--|-0---1---1---0---1---1---2---2---|-0---1---1---0---1---1---0--0--0--0--|


D#|---------------------------------|-------------------------------------------------------------------|
A#|---------------------------------|-------------------------------------------------------------------|
 F|---------------------------------|-5--5--5--------------------6--6--6--------------------------------|
A#|-0---1---1---0---1---1---2---2---|----------3--3--3--0--0--0-----------4--4--4--1--1--1--3--2--1--2--|


D#|---------------------------------------------------------------|-------------------------------------------------------------------|
A#|---------------------------------------------------------------|-------------------------------------------------------------------|
 F|-5--5--5--------------------6--6--6----------------------------|-5--5--5--------------------6--6--6--------------------------------|
A#|----------3--3--3--0--0--0-----------4--4--4--1--1--1--3---1---|----------3--3--3--0--0--0-----------4--4--4--1--1--1--3--2--1--2--|


D#|-----------------------------------|-------------------------------------------------------------------|
A#|-----------------------------------|-------------------------------------------------------------------|
 F|-----------------------------------|-5--5--5--------------------6--6--6--------------------------------|
A#|-0---1---2---1---2--2--1---0---1---|----------3--3--3--0--0--0-----------4--4--4--1--1--1--3--2--1--2--|


D#|---------------------------------------------------------------|-------------------------------------------------------------------|
A#|---------------------------------------------------------------|-------------------------------------------------------------------|
 F|-5--5--5--------------------6--6--6----------------------------|-5--5--5--------------------6--6--6--------------------------------|
A#|----------3--3--3--0--0--0-----------4--4--4--1--1--1--3---1---|----------3--3--3--0--0--0-----------4--4--4--1--1--1--3--2--1--2--|


D#|-----------------------------------|---------------------------------|--------|
A#|-----------------------------------|---------------------------------|--------|
 F|-----------------------------------|---------------------------------|--------|
A#|-0---1---2---1---2--2--1---0---1---|-0-------------------------------|--------|


D#|---------------------------------|---------------------------------|---------------------------------|
A#|---------------------------------|---------------------------------|---------------------------------|
 F|---------------------------------|---------------------------------|---------------------------------|
A#|-0---1---2---1---3---2---1---0---|-0---1---2---1---3---2---1---0---|-0---1---2---1---3---2---1---2---|


D#|---------------------------------|---------------------------------|---------------------------------|
A#|---------------------------------|---------------------------------|---------------------------------|
 F|---------------------------------|---------------------------------|---------------------------------|
A#|-0---1---2---1---3---2---1---2---|-0---1---2---1---3---2---1---0---|-0---1---2---1---3---2---1---0---|


D#|---------------------------------|---------------------------------|---------------------------------------|
A#|---------------------------------|---------------------------------|---------------------------------------|
 F|---------------------------------|---------------------------------|---------------------------------------|
A#|-0---1---2---1---3---2---1---2---|-0---1---2---1---3---2---1---2---|-0--0--0---0--0--0---0--0--0---0---0---|


D#|-----------------------------------|---------------------------------------|-----------------------------------|
A#|-----------------------------------|---------------------------------------|-----------------------------------|
 F|-----------------------------------|---------------------------------------|-----------------------------------|
A#|-0--0--0---0--0--0---0----0----0---|-0--0--0---0--0--0---0--0--0---0---0---|-0--0--0---0--0--0---1----2----1---|


D#|---------------------------------------|-----------------------------------|---------------------------------------|
A#|---------------------------------------|-----------------------------------|---------------------------------------|
 F|---------------------------------------|-----------------------------------|---------------------------------------|
A#|-0--0--0---0--0--0---0--0--0---0---0---|-0--0--0---0--0--0---0----0----0---|-0--0--0---0--0--0---0--0--0---0---0---|


D#|-----------------------------------|-----------------------------------------|-----------------------------------------|
A#|-----------------------------------|-----------------------------------------|-----------------------------------------|
 F|-----------------------------------|-----------------------------------------|-----------------------------------------|
A#|-0--0--0---0--0--0---1----2----1---|-3--3--3---3--3--3---3--3--3---3--3--3---|-2--2--2---2--2--2---2--2--2---2--2--2---|


D#|-----------------------------------------|-----------------------------------------|
A#|-----------------------------------------|-----------------------------------------|
 F|-----------------------------------------|-----------------------------------------|
A#|-5--5--5---4--4--4---1--1--1---1--1--1---|-1--1--1---1--1--1---1--1--1---1--1--1---|


D#|-----------------------------------------|-----------------------------------------|
A#|-----------------------------------------|-----------------------------------------|
 F|-----------------------------------------|-----------------------------------------|
A#|-3--3--3---3--3--3---3--3--3---3--3--3---|-2--2--2---2--2--2---2--2--2---2--2--2---|


D#|-----------------------------------------|-------------------------------------------|
A#|-----------------------------------------|-------------------------------------------|
 F|-----------------------------------------|-------------------------------------------|
A#|-5--5--5---4--4--4---1--1--1---1--1--1---|-1--1--1---1--1--1---1--1--1---1--1--1--1--|


D#|--------|--------|-----------------|--------|--------|
A#|--------|--------|-----------------|--------|--------|
 F|--------|--------|-----------------|--------|--------|
A#|-3------|-2------|-5----4----1-----|-1------|-1------|





Track 4: Tiago Correia

C|--------|--------|--------|--------|--------|--------|--------|--------|---------------------|
C|--------|--------|--------|--------|--------|--------|--------|--------|---------------------|
C|--------|--------|--------|--------|--------|--------|--------|--------|---------------------|
C|--------|--------|--------|--------|--------|--------|--------|--------|-35------------------|
C|--------|--------|--------|--------|--------|--------|--------|--------|-49------------------|
C|--------|--------|--------|--------|--------|--------|--------|--------|-57--------52--------|
C|--------|--------|--------|--------|--------|--------|--------|--------|---------------------|


C|---------------------------------------|---------------------|-----------------------------------------------|
C|---------------------------------------|---------------------|-----------------------------------------------|
C|---------------------------------------|---------------------|-----------------------------------------------|
C|-35------------------------------------|-----------35--------|-----------------------------------------------|
C|-49---------------------45---45---45---|-35---35---49--------|-----------------------------------------------|
C|-57------------35-35-35-47---47---47---|-49---57---57--------|-52--48-48-48-48-48-48-47-47-47-47-38-38-47-47-|
C|---------------------------------------|---------------------|-----------------------------------------------|


C|------------------------|----------------------------------|----------------------------------|
C|------------------------|----------------------------------|----------------------------------|
C|------------------------|----------------------------------|----------------------------------|
C|-35---------------------|-35-------------------------------|----------------------------------|
C|-49---------------------|-49-------------------------------|-49---35---35---------------------|
C|-57--------52-------35--|-57--------52------------35-35-35-|-38---57---49---49-57-49-57-49-57-|
C|------------------------|----------------------------------|----------------------------------|


C|-------------------------------------------------------------------------|-------------------------------------------|
C|-------------------------------------------------------------------------|-------------------------------------------|
C|-------------------------------------------------------------------------|-------------------------------------------|
C|-------------------------------------------------------------------------|-------------------------------------------|
C|-------------------------------------------------------------------------|-------------------------------------------|
C|-49-57-49-57-49-57-49-57-49-57-49-57-49-57-49-57-49-57-49-57-49-57-49-57-|-49-57-49-57-49-57-49--35--38--35------35--|
C|-------------------------------------------------------------------------|-------------------------------------------|


C|-------------------------------------------------|-------------------------------------------------|
C|-------------------------------------------------|-------------------------------------------------|
C|-------------------------------------------------|-------------------------------------------------|
C|-------------------------35----------------------|-------------------------35----------------------|
C|-35----------35----------46----------35----------|-35----------35----------46----------35----------|
C|-49-35-35-35-46-35-35-35-38-35-35-35-46-35-35-35-|-46-35-35-35-46-35-35-35-38-35-35-35-46-35-35-35-|
C|-------------------------------------------------|-------------------------------------------------|


C|-------------------------------------------------|-------------------------------------------------|
C|-------------------------------------------------|-------------------------------------------------|
C|-------------------------------------------------|-------------------------------------------------|
C|-------------------------35----------------------|-------------------------35----------------------|
C|-35----------35----------46----------35----------|-35----------35----------46----------35----35----|
C|-46-35-35-35-46-35-35-35-38-35-35-35-46-35-35-35-|-46-35-35-35-46-35-35-35-38-35-35-35-46-35-38-35-|
C|-------------------------------------------------|-------------------------------------------------|


C|-------------------------------------------------|-------------------------------------------------|
C|-------------------------------------------------|-------------------------------------------------|
C|-------------------------------------------------|-------------------------------------------------|
C|-------------------------35----------------------|-------------------------35----------------------|
C|-35----------35----------46----------35----------|-35----------35----------46----------35----------|
C|-49-35-35-35-46-35-35-35-38-35-35-35-46-35-35-35-|-46-35-35-35-46-35-35-35-38-35-35-35-46-35-35-35-|
C|-------------------------------------------------|-------------------------------------------------|


C|-------------------------------------------------|--------------------------------------|
C|-------------------------------------------------|--------------------------------------|
C|-------------------------------------------------|--------------------------------------|
C|-------------------------35----------------------|--------------------------------------|
C|-35----------35----------46----------35----------|-------------35--------------49-------|
C|-46-35-35-35-46-35-35-35-38-35-35-35-46-35-35-35-|-46-35-35-35-46-35-35-35-38--35---35--|
C|-------------------------------------------------|--------------------------------------|


C|-------------------------------------------------|-------------------------------------------------|
C|-------------------------------------------------|-------------------------------------------------|
C|-------------------------------------------------|-------------------------------------------------|
C|-------------------------35----------------------|-------------------------35----------------------|
C|-35----------35----------38----------35----------|-35----------35----------38----------35----------|
C|-57-35-35-35-57-35-35-35-57-35-35-35-57-35-35-35-|-57-35-35-35-57-35-35-35-57-35-35-35-57-35-35-35-|
C|-------------------------------------------------|-------------------------------------------------|


C|-------------------------------------------------|-------------------------------------------------|
C|-------------------------------------------------|-------------------------------------------------|
C|-------------------------------------------------|-------------------------------------------------|
C|-------------------------35----------------------|-------------------------------------------------|
C|-35----------35----------38----------35----------|-35----------57----------57----------35----------|
C|-57-35-35-35-57-35-35-35-57-35-35-35-57-35-35-35-|-57-35-35-35-35-35-35-35-38----35----57----35----|
C|-------------------------------------------------|-------------------------------------------------|


C|-------------------------------------------------|-------------------------------------------------|
C|-------------------------------------------------|-------------------------------------------------|
C|-------------------------------------------------|-------------------------------------------------|
C|-------------------------35----------------------|-------------------------35----------------------|
C|-35----------35----------38----------35----------|-35----------35----------38----------35----------|
C|-57-35-35-35-57-35-35-35-57-35-35-35-57-35-35-35-|-57-35-35-35-57-35-35-35-57-35-35-35-57-35-35-35-|
C|-------------------------------------------------|-------------------------------------------------|


C|-------------------------------------------------|-------------------------------------------------|
C|-------------------------------------------------|-------------------------------------------------|
C|-------------------------------------------------|-------------------------------------------------|
C|-------------------------35----------------------|-------------------------------------------------|
C|-35----------35----------38----------35----------|-35----------57----------57----------35----------|
C|-57-35-35-35-57-35-35-35-57-35-35-35-57-35-35-35-|-57-35-35-35-35-35-35-35-38----35----57----35----|
C|-------------------------------------------------|-------------------------------------------------|


C|-------------------------------------------------|-------------------------------------------------|
C|-------------------------------------------------|-------------------------------------------------|
C|-------------------------------------------------|-------------------------------------------------|
C|-------------------------35----------------------|-------------------------35----------------------|
C|-35----------35----------53----------35----35----|-35----------35----------53-------35-------35----|
C|-57-35-35-35-53-35-35-35-38-35-35-35-53-35-53-35-|-53-35-35-35-53-35-35-35-38-35-35-53-35-35-53-35-|
C|-------------------------------------------------|-------------------------------------------------|


C|-------------------------------------------------|-------------------------------------------------|
C|-------------------------------------------------|-------------------------------------------------|
C|-------------------------------------------------|-------------------------------------------------|
C|-------------------------35----------------------|-------------------------35----------------------|
C|-35----------35----------53----------35----35----|-35----------35----------53-------35-------35----|
C|-53-35-35-35-53-35-35-35-38-35-35-35-53-35-53-35-|-53-35-35-35-53-35-35-35-38-35-35-53-35-35-53-35-|
C|-------------------------------------------------|-------------------------------------------------|


C|-------------------------------------------------|-------------------------------------------------|
C|-------------------------------------------------|-------------------------------------------------|
C|-------------------------------------------------|-------------------------------------------------|
C|-------------------------35----------------------|-------------------------35----------------------|
C|-35----------35----------53----------35----35----|-35----------35----------53-------35-------35----|
C|-53-35-35-35-53-35-35-35-38-35-35-35-53-35-53-35-|-53-35-35-35-53-35-35-35-38-35-35-53-35-35-53-35-|
C|-------------------------------------------------|-------------------------------------------------|


C|-------------------------------------------------|---------------------------------------|
C|-------------------------------------------------|---------------------------------------|
C|-------------------------------------------------|---------------------------------------|
C|-------------------------35----------------------|---------------------------------------|
C|-35----------35----------53----------35----35----|-35----------35----------52---57---49--|
C|-53-35-35-35-53-35-35-35-38-35-35-35-53-35-53-35-|-53-35-35-35-53-35-35-35-38---35---35--|
C|-------------------------------------------------|---------------------------------------|


C|-------------------------------------------------|----------------------------------------|
C|-------------------------------------------------|----------------------------------------|
C|-------------------------------------------------|----------------------------------------|
C|-------------------------------------------------|----------------------------------------|
C|-35--35--35--35----------------------------------|-35--35--35------------------------53---|
C|-57--57--57--57--38383838353535354848484847474747|-57--57--57--3838383838-38-3535353538---|
C|-------------------------------------------------|----------------------------------------|


C|-------------------------------------|-----------------------------------------------|
C|-------------------------------------|-----------------------------------------------|
C|-------------------------------------|-----------------------------------------------|
C|-------------------------------------|-----35-35-35-35-35-35-35-35-35-35-------------|
C|-35----------------------35-35-35-35-|-35--46-46-46-46-46-46-46-46-46-46-35----57----|
C|-57--57------------------49-57-49-57-|-49--38-38-38-38-38-38-38-38-38-38-49----35----|
C|-------------------------------------|-----------------------------------------------|


C|-----------------------------------------------|-----------------------------------------|
C|-----------------------------------------------|-----------------------------------------|
C|-----------------------------------------------|-----------------------------------------|
C|-----35-35-35-35-35-35-35-35-35-35-------------|-----------------------------------------|
C|-35--46-46-46-46-46-46-46-46-46-46-35-57-35-57-|-35--57--49----------35--35--------------|
C|-49--38-38-38-38-38-38-38-38-38-38-49-35-49-35-|-49--35--35--3838383857--49--3838383835--|
C|-----------------------------------------------|-----------------------------------------|


C|-----------------------------------------------|-----------------------------------------------|
C|-----------------------------------------------|-----------------------------------------------|
C|-----------------------------------------------|-----------------------------------------------|
C|-----------------------------------------------|-----35-35-35-35-35-35-35-35-35-35-------------|
C|-35--35-38-46-38-46-38-46-38-46-38-35-35-35-35-|-35--46-46-46-46-46-46-46-46-46-46-35----57----|
C|-49--46-46-35-46-35-46-35-46-35-46-49-57-49-57-|-49--38-38-38-38-38-38-38-38-38-38-49----35----|
C|-----------------------------------------------|-----------------------------------------------|


C|-----------------------------------------------|-----------------------------------------|
C|-----------------------------------------------|-----------------------------------------|
C|-----------------------------------------------|-----------------------------------------|
C|-----------------------------------------------|-----------------------------------------|
C|-35--35-38-46-38-46-38-46-38-46-38-35-35-35-35-|-35--57--49----------35--35--------------|
C|-49--46-46-35-46-35-46-35-46-35-46-49-57-49-57-|-49--35--35--3838383857--49--3838383835--|
C|-----------------------------------------------|-----------------------------------------|


C|-------------------------------------------------------------------------|-------------------------------------------------------------------------|
C|-------------------------------------------------------------------------|-------------------------------------------------------------------------|
C|-------------------------------------------------------------------------|-------------------------------------------------------------------------|
C|-35----35----35----35----35----35----35----35----35----35----35----35----|-35----35----35----35----35----35----35----35----35----35----35----35----|
C|-46----46----46----46----46----46----46----46----46----46----46----46----|-46----46----46----46----46----46----46----46----46----46----46----46----|
C|-38-35-38-35-38-35-38-35-38-35-38-35-38-35-38-35-38-35-38-35-38-35-38-35-|-38-35-38-35-38-35-38-35-38-35-38-35-38-35-38-35-38-35-38-35-38-35-38-35-|
C|-------------------------------------------------------------------------|-------------------------------------------------------------------------|


C|-------------------------------------------------------------------------|-------------------------------------------------------------------------|
C|-------------------------------------------------------------------------|-------------------------------------------------------------------------|
C|-------------------------------------------------------------------------|-------------------------------------------------------------------------|
C|-35----35----35----35----35----35----35----35----35----35----35----35----|-35----------------------------------------------------------------------|
C|-38----46----46----46----46----46----46----46----46----46----46----46----|-46----46----46----46----46----------38----------------38----------------|
C|-49-35-38-35-38-35-38-35-38-35-38-35-38-35-38-35-38-35-38-35-38-35-38-35-|-38-35-38-35-38-35-38-35-38-35-35-35-35----48-48-48-48-35----47-47-47-47-|
C|-------------------------------------------------------------------------|-------------------------------------------------------------------------|


C|-------------------------------------------------|-------------------------------------------------|
C|-------------------------------------------------|-------------------------------------------------|
C|-------------------------------------------------|-------------------------------------------------|
C|-------------------------35----------------------|-------------------------35----------------------|
C|-35----------35----------46----------35----------|-35----------35----------46----------35----35----|
C|-57-35-35-35-46-35-35-35-38-35-35-35-46-35-35-35-|-46-35-35-35-46-35-35-35-38-35-35-35-46-35-38-35-|
C|-------------------------------------------------|-------------------------------------------------|


C|-------------------------------------------------|-------------------------------------------------|
C|-------------------------------------------------|-------------------------------------------------|
C|-------------------------------------------------|-------------------------------------------------|
C|-------------------------35----------------------|-------------------------35----------35----------|
C|-35----------35----------46----------35----------|-35----------35----------46----------46----------|
C|-49-35-35-35-46-35-35-35-38-35-35-35-46-35-35-35-|-46-35-35-35-46-35-35-35-38-35-35-35-38-35-35-35-|
C|-------------------------------------------------|-------------------------------------------------|


C|-------------------------------------------------|-------------------------------------------------|
C|-------------------------------------------------|-------------------------------------------------|
C|-------------------------------------------------|-------------------------------------------------|
C|-------------------------35----------------------|-------------------------35----------35----------|
C|-35----------35----------46----------35----------|-35----------35----------46----------46----------|
C|-49-35-35-35-46-35-35-35-38-35-35-35-46-35-35-35-|-46-35-35-35-46-35-35-35-38-35-35-35-38-35-35-35-|
C|-------------------------------------------------|-------------------------------------------------|


C|-------------------------------------------------|-------|-------------------------------------------------------------------------|
C|-------------------------------------------------|-------|-------------------------------------------------------------------------|
C|-------------------------------------------------|-------|-------------------------------------------------------------------------|
C|-------------------------46----------------------|-------|-------------------------------------35----------------------------------|
C|-35----------35----------38----------46----------|-------|-35----------------35----------------46----------------35----------------|
C|-49-35-35-35-46-35-35-35-35-35-35-35-35----46----|-------|-49-35-35-35-35-35-46-35-35-35-35-35-38-35-35-35-35-35-46-35-35-35-35-35-|
C|-------------------------------------------------|-------|-------------------------------------------------------------------------|


C|-------------------------------------------------------------------------|-------------------------------------------------------------------------|
C|-------------------------------------------------------------------------|-------------------------------------------------------------------------|
C|-------------------------------------------------------------------------|-------------------------------------------------------------------------|
C|-------------------------------------35----------------------------------|-------------------------------------35----------------------------------|
C|-35----------------35----------------46----------------35----------------|-35----------------35----------------46----------------35----------------|
C|-57-35-35-35-35-35-46-35-35-35-35-35-38-35-35-35-35-35-46-35-35-35-35-35-|-49-35-35-35-35-35-46-35-35-35-35-35-38-35-35-35-35-35-46-35-35-35-35-35-|
C|-------------------------------------------------------------------------|-------------------------------------------------------------------------|


C|-------------------------------------------------------------------------|-------------------------------------------------------------------------|
C|-------------------------------------------------------------------------|-------------------------------------------------------------------------|
C|-------------------------------------------------------------------------|-------------------------------------------------------------------------|
C|-------------------------------------35----------------------------------|-35----35----35----35----35----35----35----35----35----35----35----35----|
C|-35----------------35----------------46----------------35----------------|-46----46----46----46----46----46----46----46----46----46----46----46----|
C|-57-35-35-35-35-35-46-35-35-35-35-35-38-35-35-35-35-35-46-35-35-35-35-35-|-38-35-38-35-38-35-38-35-38-35-38-35-38-35-38-35-38-35-38-35-38-35-38-35-|
C|-------------------------------------------------------------------------|-------------------------------------------------------------------------|


C|-------------------------------------------------------------------------|-------------------------------------------------------------------------|
C|-------------------------------------------------------------------------|-------------------------------------------------------------------------|
C|-------------------------------------------------------------------------|-------------------------------------------------------------------------|
C|-35----35----35----35----35----35----35----35----35----35----35----35----|-35----35----35----35----35----35----35----35----35----35----35----35----|
C|-46----46----46----46----46----46----46----46----46----46----46----46----|-46----46----46----46----46----46----46----46----46----46----46----46----|
C|-38-35-38-35-38-35-38-35-38-35-38-35-38-35-38-35-38-35-38-35-38-35-38-35-|-38-35-38-35-38-35-38-35-38-35-38-35-38-35-38-35-38-35-38-35-38-35-38-35-|
C|-------------------------------------------------------------------------|-------------------------------------------------------------------------|


C|-------------------------------------------------------------------------|-------------------------------------------------|
C|-------------------------------------------------------------------------|-------------------------------------------------|
C|-------------------------------------------------------------------------|-------------------------------------------------|
C|-46----46----46----46----46----------------------------------------------|-------------------------35----------------------|
C|-38----38----38----38----38----------48----------------38----------------|-35----------35----35----46----35----35----35-35-|
C|-35-35-35-35-35-35-35-35-35-35-35-35-35-48-48-48-48-48-35-47-47-47-47-47-|-49-35-35-35-46-35-46-35-38-35-46-35-46-35-38-38-|
C|-------------------------------------------------------------------------|-------------------------------------------------|


C|-------------------------------------------------|-------------------------------------------------|
C|-------------------------------------------------|-------------------------------------------------|
C|-------------------------------------------------|-------------------------------------------------|
C|-------------------------35----35----------35----|-------------------35----35----------------------|
C|-35----35----35----35----46----46----35----46----|-35----35----35----46----46----35----35----35----|
C|-46-35-46-35-46-35-46-35-38-35-38-35-46-35-38-35-|-46-35-46-35-46-35-38-35-38-35-46-35-46-35-46-35-|
C|-------------------------------------------------|-------------------------------------------------|


C|---------------------------------------------|-------------------------------------------------|
C|---------------------------------------------|-------------------------------------------------|
C|---------------------------------------------|-------------------------------------------------|
C|-------------------------35----35------------|-------------------------35----------------------|
C|-35----35----35----35----46----46----35------|-35----------35----35----46----35----35----35-35-|
C|-46-35-46-35-46-35-46-35-38-35-38-35-49--49--|-49-35-35-35-46-35-46-35-38-35-46-35-46-35-38-38-|
C|---------------------------------------------|-------------------------------------------------|


C|-------------------------------------------------|-------------------------------------------------|
C|-------------------------------------------------|-------------------------------------------------|
C|-------------------------------------------------|-------------------------------------------------|
C|-------------------------35----35----------35----|-------------------35----35----------------------|
C|-46----35----35----35----46----46-35-35----46----|-35----35----35----46----46----35----35----35----|
C|-35-35-46-35-46-35-46-35-38-35-38-38-46-35-38-35-|-46-35-46-35-46-35-38-35-38-35-46-35-46-35-46-35-|
C|-------------------------------------------------|-------------------------------------------------|


C|-------------------------------------------------|-----------------------------------------------|
C|-------------------------------------------------|-----------------------------------------------|
C|-------------------------------------------------|-----------------------------------------------|
C|-------------------------35----------------35----|-----------------------------------------------|
C|-35----35----35----35----46----35----35----46----|-35--46-46-46-38-46-38-46-38-46-38-35-35-35-35-|
C|-46-35-46-35-46-35-46-35-38-35-46-35-46-35-38-35-|-49--35-38-35-46-35-46-35-46-35-46-49-57-49-57-|
C|-------------------------------------------------|-----------------------------------------------|


C|-----------------------------------------------|-----------------------------------------------|
C|-----------------------------------------------|-----------------------------------------------|
C|-----------------------------------------------|-----------------------------------------------|
C|-----35-35-35-35-35-35-35-35-35-35-------------|-----------------------------------------------|
C|-35--46-46-46-46-46-46-46-46-46-46-35----57----|-35--46-46-46-38-46-38-46-38-46-38-35-35-35-35-|
C|-49--38-38-38-38-38-38-38-38-38-38-49----35----|-49--35-38-35-46-35-46-35-46-35-46-49-57-49-57-|
C|-----------------------------------------------|-----------------------------------------------|


C|-----------------------------------------|-------------------------------------------------------------------|
C|-----------------------------------------|-------------------------------------------------------------------|
C|-----------------------------------------|-------------------------------------------------------------------|
C|-----------------------------------------|-------------------------------------35----------------------------|
C|-35--57--49----------35--35--------------|-35----------------35----------------55----------------35-35-35-35-|
C|-49--35--35--3838383857--49--3838383835--|-49-35-35-35-35-35-55-35-35-35-35-35-38-35-35-35-35-35-49-57-49-57-|
C|-----------------------------------------|-------------------------------------------------------------------|


C|------------------------------------------------------------------|-------------------------------------------------------------------|
C|------------------------------------------------------------------|-------------------------------------------------------------------|
C|------------------------------------------------------------------|-------------------------------------------------------------------|
C|-------------------------------------55---------------------------|-------------------------------------35----------------------------|
C|-35----------------55----------------38---------------49----35----|-35----------------35----------------55----------------35-35-35-35-|
C|-49-35-35-35-35-35-35-35-35-35-35-35-35-35-35-3838383835----57----|-49-35-35-35-35-35-55-35-35-35-35-35-38-35-35-35-35-35-49-57-49-57-|
C|------------------------------------------------------------------|-------------------------------------------------------------------|


C|-----------------------------------------|------------------------|----------------------------------|
C|-----------------------------------------|------------------------|----------------------------------|
C|-----------------------------------------|------------------------|----------------------------------|
C|-----------------------------------------|------------------------|----------------------------------|
C|-35--57--49----------35--35--------------|-49---------------------|-35--------------------------45---|
C|-49--35--35--3838383857--49--3838383835--|-35--49-----------------|-49--49--------------3535353543---|
C|-----------------------------------------|------------------------|----------------------------------|


C|-----------------------------------------------|-----------------------------------------------|
C|-----------------------------------------------|-----------------------------------------------|
C|-----------------------------------------------|-----------------------------------------------|
C|-----46-46-46-46-46-46-46-46-46-46-46-46-46-46-|-----46-46-46-46-46-46-46-46-46-46-46-46-46-46-|
C|-35--35-35-35-35-35-35-35-35-35-35-35-35-35-35-|-35--35-35-35-35-35-35-35-35-35-35-35-35-35-35-|
C|-49--38-38-38-38-38-38-38-38-38-38-38-38-38-38-|-49--38-38-38-38-38-38-38-38-38-38-38-38-38-38-|
C|-----------------------------------------------|-----------------------------------------------|


C|-------------------------------------------------|-------------------------------------------------|
C|-------------------------------------------------|-------------------------------------------------|
C|-------------------------------------------------|-------------------------------------------------|
C|-------------------------35----------------------|-------------------------35----------------------|
C|-35----------35----------46----35----35----35----|-35----------35----35----46----35----35----35----|
C|-49-35-35-35-46-35-35-35-38-35-46-35-46-35-46-35-|-49-35-35-35-46-35-46-35-38-35-46-35-46-35-46-35-|
C|-------------------------------------------------|-------------------------------------------------|


C|-----------------------------------------------|-----------------------------------------------|
C|-----------------------------------------------|-----------------------------------------------|
C|-----------------------------------------------|-----------------------------------------------|
C|-----46-46-46-46-46-46-46-46-46-46-46-46-46-46-|-----46-46-46-46-46-46-46-46-46-46-46-46-46-46-|
C|-35--35-35-35-35-35-35-35-35-35-35-35-35-35-35-|-35--35-35-35-35-35-35-35-35-35-35-35-35-35-35-|
C|-49--38-38-38-38-38-38-38-38-38-38-38-38-38-38-|-49--38-38-38-38-38-38-38-38-38-38-38-38-38-38-|
C|-----------------------------------------------|-----------------------------------------------|


C|-------------------------------------------------|-------------------------------------|
C|-------------------------------------------------|-------------------------------------|
C|-------------------------------------------------|-------------------------------------|
C|-------------------------35----------------------|-------------------------------------|
C|-35----------35----------46----35----35----35----|-35--35--49----------35--35------49--|
C|-49-35-35-35-46-35-35-35-38-35-46-35-46-35-46-35-|-49--57--35--3838383849--57--38--35--|
C|-------------------------------------------------|-------------------------------------|


C|-------------------------------------------------|-------------------------------------------------|
C|-------------------------------------------------|-------------------------------------------------|
C|-------------------------------------------------|-------------------------------------------------|
C|-------------------------35----------------------|-------------------------35----------------------|
C|-35----------35----------53----------35----35----|-35----------35----------53-------35-------35----|
C|-57-35-35-35-53-35-35-35-38-35-35-35-53-35-53-35-|-53-35-35-35-53-35-35-35-38-35-35-53-35-35-53-35-|
C|-------------------------------------------------|-------------------------------------------------|


C|-------------------------------------------------|-------------------------------------------------|
C|-------------------------------------------------|-------------------------------------------------|
C|-------------------------------------------------|-------------------------------------------------|
C|-------------------------35----------------------|-------------------------35----------------------|
C|-35----------35----------53----------35----35----|-35----------35----------53-------35-------35----|
C|-53-35-35-35-53-35-35-35-38-35-35-35-53-35-53-35-|-53-35-35-35-53-35-35-35-38-35-35-53-35-35-53-35-|
C|-------------------------------------------------|-------------------------------------------------|


C|-------------------------------------------------|-------------------------------------------------|
C|-------------------------------------------------|-------------------------------------------------|
C|-------------------------------------------------|-------------------------------------------------|
C|-------------------------35----------------------|-------------------------35----------------------|
C|-35----------35----------53----------35----35----|-35----------35----------53-------35-------35----|
C|-53-35-35-35-53-35-35-35-38-35-35-35-53-35-53-35-|-53-35-35-35-53-35-35-35-38-35-35-53-35-35-53-35-|
C|-------------------------------------------------|-------------------------------------------------|


C|-------------------------------------------------|---------------------------------------|
C|-------------------------------------------------|---------------------------------------|
C|-------------------------------------------------|---------------------------------------|
C|-------------------------35----------------------|---------------------------------------|
C|-35----------35----------53----------35----35----|-35----------35----------52---57---35--|
C|-53-35-35-35-53-35-35-35-38-35-35-35-53-35-53-35-|-53-35-35-35-53-35-35-35-38---35---49--|
C|-------------------------------------------------|---------------------------------------|


C|-------------------------------------------|-------------------------------------------|
C|-------------------------------------------|-------------------------------------------|
C|-------------------------------------------|-------------------------------------------|
C|---------------------35--------------------|---------------------35--------------------|
C|-35--------35--------57--------35----------|-35--------35--------57--------35----------|
C|-57-35-35--57-35-35--38-35-35--57-35-35-35-|-57-35-35--57-35-35--38-35-35--57-35-35-35-|
C|-------------------------------------------|-------------------------------------------|


C|-------------------------------------------|-------------------------------------|
C|-------------------------------------------|-------------------------------------|
C|-------------------------------------------|-------------------------------------|
C|---------------------35--------------------|-------------------------------------|
C|-35--------35--------57--------35----------|-35--------35--------38------35------|
C|-57-35-35--57-35-35--38-35-35--57-35-35-35-|-57-35-35--57-35-35--57--35--57--38--|
C|-------------------------------------------|-------------------------------------|


C|-------------------------------------------|-------------------------------------------|
C|-------------------------------------------|-------------------------------------------|
C|-------------------------------------------|-------------------------------------------|
C|---------------------35--------------------|---------------------35--------------------|
C|-35--------35--------57--------35----------|-35--------35--------57--------35----------|
C|-57-35-35--57-35-35--38-35-35--57-35-35-35-|-57-35-35--57-35-35--38-35-35--57-35-35-35-|
C|-------------------------------------------|-------------------------------------------|


C|-------------------------------------------|-------------------------------------|
C|-------------------------------------------|-------------------------------------|
C|-------------------------------------------|-------------------------------------|
C|---------------------35--------------------|-------------------------------------|
C|-35--------35--------57--------35----------|-35--------35--------38------35------|
C|-57-35-35--57-35-35--38-35-35--57-35-35-35-|-57-35-35--57-35-35--57--35--57--38--|
C|-------------------------------------------|-------------------------------------|


C|---------------------|---------------------------------------|---------------------|
C|---------------------|---------------------------------------|---------------------|
C|---------------------|---------------------------------------|---------------------|
C|-35------------------|-35------------------------------------|-----------35--------|
C|-49------------------|-49---------------------45---45---45---|-35---35---49--------|
C|-57--------52--------|-57------------35-35-35-47---47---47---|-49---57---57--------|
C|---------------------|---------------------------------------|---------------------|


C|-------------|-------------|
C|-------------|-------------|
C|-------------|-------------|
C|-------------|-------------|
C|-------------|-------------|
C|-------------|-------------|
C|-------------|-------------|