Lemon Squeezy Records

Artist: Comptine Dun Autre Été Laprès-Midi, Title: Amelie

Card image

G

Card image

A

Card image

D

Card image

G

Card image

B

Card image

E

Comptine Dun Autre Été Laprès-Midi - Amelie

Amelie - Comptine d’une autre été
Capo at 7th fret

NOTE: Chords are called by their shapes, not as the transposed chords.

Tuning: GADGBe

        Am                      Am/G                            G6              
e|-------------------------------------------------------------------------------| 
B|-1----1----1---1---1-----1-----1----1-----0-----0-----0----0------|
G|---2----2----2--------2-----2----2-----2-----2-----2----2-----------| 
D|------2--------2---------2----------2-----------2----------2------------| 
A|-0---------0----------------------------------------------------------------| 
G|-------------------0-----------0----------0-----------0-------------------|
        G
e|-----------------------------|
B|--0---0-----0----0------|
G|----0----0-----0----0---|
D|------0----------0--------|
A|----------------------------|
G|--0---------0-------------|

        Am                      Am/G
e|----------0h1-0------------------------------------------------------| 
B|---1p0-1---------------0-----0--1h3-1-------------------------| 
G|--------------------------2--------------------------------------------| 
D|-------2---------2-----------2------------2-------------------------| 
A|-0------------0-------------------------------------------------------| 
G|---------------------0--------------0---------------------------------|
        W          W                             W&P                M
                                
        G6
e|----------------0h1--0--------------------------------| 
B|-----0------0-------------------0------0--------------| 
G|--------2---------------------------2-----------------| 
D|------------2------------2-------------0---------0----| 
A|------------------------------------------------------| 
G|--0------------------0-------0--------------0---------|

        Amaj
e|-5-------------------3--------------------------------|
B|----------5----------------------5--------------------| 
G|------------------------------------------------------| 
D|------2-----------2---------2------------2------------| 
A|-0-----------0----------------------------------------| 
G|---------------------0--------------0-----------------|

        Esus2/G                 Gmaj7
e|--7----------------------7----------------------------| 
B|-----------5-----------------------3------------------| 
G|------------------------------------------------------| 
D|------2------------2----------0--------------0--------| 
A|------------------------------------------------------| 
G|--0-----------0----------0-------------0--------------|

        Am                                              Em
e|-0-----0-----0----0-------0---1----0----0-----0------0---------------|
B|---1-----1-----1-----1------1---1----0----0-----0------0----3---1----| 
G|-----2-----2-----2-----2---------------0----0-----0------0----0---0--| 
D|---------2----------------2---------------2-----------------2--------| 
A|-0---------------0---------------------------------------------------| 
G|-----------------------------------0--------------0------------------|
        G/B
e|---------------------------------------------------------------------|
B|-0-----0-----0------0------0---1---3-----3-----3-----3-----3---1-----|
G|---0-----0-----0------0------0---0---0-----0-----0-----0-----0---0---|
D|-----2-----2-----2------2------2-------0-----0-----0-----0-----0-----|
A|---------2-----------------2---------------2---------------2---------|
E|-0---------------0-----------------0---------------0-----------------|



************************************

| h  Hammer-on
| p  Pull-off
 

************************************