Artist: Beartooth, Title: Agressive - CGCFAD

Card image

C

Card image

G

Card image

C

Card image

F

Card image

A

Card image

D

Beartooth - Agressive

[Intro]

(0;18-0;34)
                          1/4       1/4            1/4                       1/4
                          /         /              /                          /
D|-----------------------/---------/--------------/--------------------------/-------------------------------|
A|----------------------/---------/-------------3/--------------------------/--------------------------------|
F|---------------------/---------/--------------3--------------------------/---------------------------------|
C|0-2-3-0-2-5-3-2-3-0-3-2---2-0-3-0-2-5-3-2-3-0---2---0-2-3-0-2-5-3-2-3-0-3-2--2-0-2--2-0-2----2---3---2---2-|
G|0-2-3-0-2-5-3-2-3-0-3-2---2-0-3-0-2-5-3-2-3-0---2---0-2-3-0-2-5-3-2-3-0-3-2--2-0-2--2-0-2------------------|
C|0-2-3-0-2-5-3-2-3-0-3-2---2-0-3-0-2-5-3-2-3-0---2---0-2-3-0-2-5-3-2-3-0-3-2--2-0-2--2-0-2--2---2---2---2---|

                          1/4       1/4            1/4                        1/4
                          /         /              /                          /
D|-----------------------/---------/--------------/--------------------------/-------------------------------|
A|----------------------/---------/-------------3/--------------------------/--------------------------------|
F|---------------------/---------/--------------3--------------------------/---------------------------------|
C|0-2-3-0-2-5-3-2-3-0-3-2---2-0-3-0-2-5-3-2-3-0---2---0-2-3-0-2-5-3-2-3-0-3-2------------------2---3---2---2-|
G|0-2-3-0-2-5-3-2-3-0-3-2---2-0-3-0-2-5-3-2-3-0---2---0-2-3-0-2-5-3-2-3-0-3-2--------------------------------|
C|0-2-3-0-2-5-3-2-3-0-3-2---2-0-3-0-2-5-3-2-3-0---2---0-2-3-0-2-5-3-2-3-0-3-2----------------2---2---2---2---|


[Verse 1]

(0;34-0;50)
               1/4       1/4   1/4       1/4     1/4   1/4       1/4       1/4   1/4
               /         /     /         /       /     /         /         /     /
D|-----------/---------/-----/---------/-------/-----/---------/---------/-----/--------xx---------xx--------|
A|----------/---------/-----/---------/-------/-----/---------/---------/-----/---------xx---------xx--------|
F|---------/---------/-----/---------/-------/-----/---------/---------/-----/----------xx---------xx--------|
C|9-9-9-9-9-9-9-9-9-9-9-9-9-9-9-9-9-9-9-9-9-9-9-9-9-9-9-9-9-9-9-9-9-9-9-9-9-9-----------xx-7-7-7-7-xx--------|
G|7-7-7-7-7-7-7-7-7-7-7-7-7-7-7-7-7-7-7-7-7-7-7-7-7-7-7-7-7-7-7-7-7-7-7-7-7-7---5-5-5-5-xx-5-5-5-5-xx-0-0-0-0|
C|------------------------------------------------------------------------------5-5-5-5-xx---------xx-0-0-0-0|


[Pre-chorus]

(0;50-0;58)
                ~1/4
D|---------------/---------------------------------|
A|--------------/----------------------------------|
F|-------------/-----------------------------------|
C|------------/------------------------------------|
G|-7-7-7-7-7-7-7-7-------------5-5-5-5-5-5---------|
C|-----------------5-5-5-5-5-5-------------0-0-0-0-|


[Chorus]

(0;58-1;30)

   ^  -  ^  -   ^  -   ^    ^  -  ^  -   ^  -   ^  ^ -  ^  ^  -
D|--------------------------------------------------------------|
A|--------------------------------------------------------------|
F|--------------------------5--5--5--5---5--5---5--x-x--5--5--5-|
C|-2--2--2--2---2--2---2----5--5--5--5---5--5---5--x-x--5--5--5-|
G|-2--2--2--2---2--2---2----3--3--3--3---3--3---3--x-x--3--3--3-|
C|-2--2--2--2---2--2---2----------------------------------------|
               P.M.-|                   P.M.-|


    ^  -  ^  -   ^  -   ^   ^   -   ^   -    ^   -    ^   ^ -  ^   ^   -
D|---------------------------------------------------------------------------|
A|---------------------------------------------------------------------------|
F|---------------------------------------------------------------------------|
C|--7--7--7--7---7--7---7---10--10--10--10---10--10---10--x-x--10--10--10----|
G|--7--7--7--7---7--7---7---10--10--10--10---10--10---10--x-x--10--10--10----|
G|--7--7--7--7---7--7---7---10--10--10--10---10--10---10--x-x--10--10--10----|
                 P.M.-|                       P.M.--|

(...)We're the aggressive youth!
(2;56-2;59)
               Harm.
D|------------------------------|
A|------------------------------|
F|-------------(4)--------------|
C|-----2--3--6-----3--2---------|
G|-----2--3--6-----3--2---------|
C|-----2--3--6-----3--2---------|


[Breakdown]

               Harm.                                   Harm.
D|---------0------------------0-------------------0--------------------------------|
A|---------0------------------0-------------------0--------------------------------|
F|---------------------------------------------------------------------------------|
C|-2-2-2-3---2--(4)---2-2-2-3---2-6-------2-2-2-3---2---(4)---2-2-2-3--2--x--2-2-3-|
G|-2-2-2-3---2----(3)-2-2-2-3---2-6-------2-2-2-3---2-----(3)-2-2-2-3--2--x--2-2-3-|
C|-2-2-2-3---2--------2-2-2-3---2-6-------2-2-2-3---2---------2-2-2-3--2--x--2-2-3-|
          \                  \     \             \                   \
          1\4                1\4   1\4           1\4                 1\4

************************************

| x    Dead note
| (n)  Ghost note
| /    Slide up
| P.M.

************************************